  0
SECTION
  2
HEADER
  9
$ACADVER
  1
AC1015
  9
$ACADMAINTVER
 70
    18
  9
$DWGCODEPAGE
  3
ANSI_1252
  9
$INSBASE
 10
0.0
 20
0.0
 30
0.0
  9
$EXTMIN
 10
1242.480217329287
 20
5238.466507333555
 30
-0.00000001
  9
$EXTMAX
 10
8576.051787925084
 20
12375.64919302013
 30
0.00000001
  9
$LIMMIN
 10
0.0
 20
0.0
  9
$LIMMAX
 10
413.3333333333333
 20
584.9166666666667
  9
$ORTHOMODE
 70
     0
  9
$REGENMODE
 70
     1
  9
$FILLMODE
 70
     1
  9
$QTEXTMODE
 70
     0
  9
$MIRRTEXT
 70
     0
  9
$LTSCALE
 40
1.0
  9
$ATTMODE
 70
     1
  9
$TEXTSIZE
 40
75.0
  9
$TRACEWID
 40
0.05
  9
$TEXTSTYLE
  7
Standard
  9
$CLAYER
  8
0
  9
$CELTYPE
  6
ByLayer
  9
$CECOLOR
 62
     7
  9
$CELTSCALE
 40
1.0
  9
$DISPSILH
 70
     0
  9
$DIMSCALE
 40
1.0
  9
$DIMASZ
 40
0.18
  9
$DIMEXO
 40
0.0625
  9
$DIMDLI
 40
0.38
  9
$DIMRND
 40
0.0
  9
$DIMDLE
 40
0.0
  9
$DIMEXE
 40
0.18
  9
$DIMTP
 40
0.0
  9
$DIMTM
 40
0.0
  9
$DIMTXT
 40
7.874015748031496
  9
$DIMCEN
 40
0.09
  9
$DIMTSZ
 40
0.0
  9
$DIMTOL
 70
     0
  9
$DIMLIM
 70
     0
  9
$DIMTIH
 70
     1
  9
$DIMTOH
 70
     1
  9
$DIMSE1
 70
     0
  9
$DIMSE2
 70
     0
  9
$DIMTAD
 70
     0
  9
$DIMZIN
 70
     0
  9
$DIMBLK
  1

  9
$DIMASO
 70
     1
  9
$DIMSHO
 70
     1
  9
$DIMPOST
  1

  9
$DIMAPOST
  1

  9
$DIMALT
 70
     0
  9
$DIMALTD
 70
     2
  9
$DIMALTF
 40
25.4
  9
$DIMLFAC
 40
1.0
  9
$DIMTOFL
 70
     0
  9
$DIMTVP
 40
0.0
  9
$DIMTIX
 70
     0
  9
$DIMSOXD
 70
     0
  9
$DIMSAH
 70
     0
  9
$DIMBLK1
  1

  9
$DIMBLK2
  1

  9
$DIMSTYLE
  2
Standard
  9
$DIMCLRD
 70
     0
  9
$DIMCLRE
 70
     0
  9
$DIMCLRT
 70
     0
  9
$DIMTFAC
 40
1.0
  9
$DIMGAP
 40
0.09
  9
$DIMJUST
 70
     0
  9
$DIMSD1
 70
     0
  9
$DIMSD2
 70
     0
  9
$DIMTOLJ
 70
     1
  9
$DIMTZIN
 70
     0
  9
$DIMALTZ
 70
     0
  9
$DIMALTTZ
 70
     0
  9
$DIMUPT
 70
     0
  9
$DIMDEC
 70
     2
  9
$DIMTDEC
 70
     4
  9
$DIMALTU
 70
     2
  9
$DIMALTTD
 70
     2
  9
$DIMTXSTY
  7
Standard
  9
$DIMAUNIT
 70
     1
  9
$DIMADEC
 70
     0
  9
$DIMALTRND
 40
0.0
  9
$DIMAZIN
 70
     0
  9
$DIMDSEP
 70
    46
  9
$DIMATFIT
 70
     3
  9
$DIMFRAC
 70
     0
  9
$DIMLDRBLK
  1

  9
$DIMLUNIT
 70
     4
  9
$DIMLWD
 70
    -2
  9
$DIMLWE
 70
    -2
  9
$DIMTMOVE
 70
     0
  9
$LUNITS
 70
     2
  9
$LUPREC
 70
     2
  9
$SKETCHINC
 40
0.1
  9
$FILLETRAD
 40
70.0
  9
$AUNITS
 70
     0
  9
$AUPREC
 70
     2
  9
$MENU
  1
.
  9
$ELEVATION
 40
0.0
  9
$PELEVATION
 40
0.0
  9
$THICKNESS
 40
0.0
  9
$LIMCHECK
 70
     0
  9
$CHAMFERA
 40
4.999999999999999
  9
$CHAMFERB
 40
4.999999999999999
  9
$CHAMFERC
 40
0.0
  9
$CHAMFERD
 40
0.0
  9
$SKPOLY
 70
     0
  9
$TDCREATE
 40
2457739.374110938
  9
$TDUCREATE
 40
2457739.332444271
  9
$TDUPDATE
 40
2457739.374110938
  9
$TDUUPDATE
 40
2457739.332444271
  9
$TDINDWG
 40
0.0007186806
  9
$TDUSRTIMER
 40
0.0007186806
  9
$USRTIMER
 70
     1
  9
$ANGBASE
 50
0.0
  9
$ANGDIR
 70
     0
  9
$PDMODE
 70
     0
  9
$PDSIZE
 40
0.0
  9
$PLINEWID
 40
0.0
  9
$SPLFRAME
 70
     0
  9
$SPLINETYPE
 70
     6
  9
$SPLINESEGS
 70
     8
  9
$HANDSEED
  5
1EB
  9
$SURFTAB1
 70
     6
  9
$SURFTAB2
 70
     6
  9
$SURFTYPE
 70
     6
  9
$SURFU
 70
     6
  9
$SURFV
 70
     6
  9
$UCSBASE
  2

  9
$UCSNAME
  2

  9
$UCSORG
 10
0.0
 20
0.0
 30
0.0
  9
$UCSXDIR
 10
1.0
 20
0.0
 30
0.0
  9
$UCSYDIR
 10
0.0
 20
1.0
 30
0.0
  9
$UCSORTHOREF
  2

  9
$UCSORTHOVIEW
 70
     0
  9
$UCSORGTOP
 10
0.0
 20
0.0
 30
0.0
  9
$UCSORGBOTTOM
 10
0.0
 20
0.0
 30
0.0
  9
$UCSORGLEFT
 10
0.0
 20
0.0
 30
0.0
  9
$UCSORGRIGHT
 10
0.0
 20
0.0
 30
0.0
  9
$UCSORGFRONT
 10
0.0
 20
0.0
 30
0.0
  9
$UCSORGBACK
 10
0.0
 20
0.0
 30
0.0
  9
$PUCSBASE
  2

  9
$PUCSNAME
  2

  9
$PUCSORG
 10
0.0
 20
0.0
 30
0.0
  9
$PUCSXDIR
 10
1.0
 20
0.0
 30
0.0
  9
$PUCSYDIR
 10
0.0
 20
1.0
 30
0.0
  9
$PUCSORTHOREF
  2

  9
$PUCSORTHOVIEW
 70
     0
  9
$PUCSORGTOP
 10
0.0
 20
0.0
 30
0.0
  9
$PUCSORGBOTTOM
 10
0.0
 20
0.0
 30
0.0
  9
$PUCSORGLEFT
 10
0.0
 20
0.0
 30
0.0
  9
$PUCSORGRIGHT
 10
0.0
 20
0.0
 30
0.0
  9
$PUCSORGFRONT
 10
0.0
 20
0.0
 30
0.0
  9
$PUCSORGBACK
 10
0.0
 20
0.0
 30
0.0
  9
$USERI1
 70
     0
  9
$USERI2
 70
     0
  9
$USERI3
 70
     0
  9
$USERI4
 70
     0
  9
$USERI5
 70
     0
  9
$USERR1
 40
0.0
  9
$USERR2
 40
0.0
  9
$USERR3
 40
0.0
  9
$USERR4
 40
0.0
  9
$USERR5
 40
0.0
  9
$WORLDVIEW
 70
     1
  9
$SHADEDGE
 70
     3
  9
$SHADEDIF
 70
    70
  9
$TILEMODE
 70
     1
  9
$MAXACTVP
 70
    64
  9
$PINSBASE
 10
0.0
 20
0.0
 30
0.0
  9
$PLIMCHECK
 70
     0
  9
$PEXTMIN
 10
1.000000000000000E+20
 20
1.000000000000000E+20
 30
1.000000000000000E+20
  9
$PEXTMAX
 10
-1.000000000000000E+20
 20
-1.000000000000000E+20
 30
-1.000000000000000E+20
  9
$PLIMMIN
 10
0.0
 20
0.0
  9
$PLIMMAX
 10
12.0
 20
9.0
  9
$UNITMODE
 70
     0
  9
$VISRETAIN
 70
     1
  9
$PLINEGEN
 70
     0
  9
$PSLTSCALE
 70
     1
  9
$TREEDEPTH
 70
  3020
  9
$CMLSTYLE
  2
Standard
  9
$CMLJUST
 70
     0
  9
$CMLSCALE
 40
1.0
  9
$PROXYGRAPHICS
 70
     1
  9
$MEASUREMENT
 70
     1
  9
$CELWEIGHT
370
    -1
  9
$ENDCAPS
280
     0
  9
$JOINSTYLE
280
     0
  9
$LWDISPLAY
290
     0
  9
$INSUNITS
 70
     0
  9
$HYPERLINKBASE
  1

  9
$STYLESHEET
  1

  9
$XEDIT
290
     1
  9
$CEPSNTYPE
380
     0
  9
$PSTYLEMODE
290
     1
  9
$FINGERPRINTGUID
  2
{6833C3FD-BE76-4269-BA24-3BF3A8D914D1}
  9
$VERSIONGUID
  2
{ACECE9AB-36F5-4C4D-AABA-C7CD226E43D7}
  9
$EXTNAMES
290
     1
  9
$PSVPSCALE
 40
0.0
  9
$OLESTARTUP
290
     0
  0
ENDSEC
  0
SECTION
  2
CLASSES
  0
CLASS
  1
ACDBDICTIONARYWDFLT
  2
AcDbDictionaryWithDefault
  3
ObjectDBX Classes
 90
        0
280
     0
281
     0
  0
CLASS
  1
DICTIONARYVAR
  2
AcDbDictionaryVar
  3
ObjectDBX Classes
 90
        0
280
     0
281
     0
  0
CLASS
  1
ACDBPLACEHOLDER
  2
AcDbPlaceHolder
  3
ObjectDBX Classes
 90
        0
280
     0
281
     0
  0
CLASS
  1
LAYOUT
  2
AcDbLayout
  3
ObjectDBX Classes
 90
        0
280
     0
281
     0
  0
ENDSEC
  0
SECTION
  2
TABLES
  0
TABLE
  2
VPORT
  5
8
330
0
100
AcDbSymbolTable
 70
     1
  0
VPORT
  5
13
330
8
100
AcDbSymbolTableRecord
100
AcDbViewportTableRecord
  2
*Active
 70
     0
 10
0.0
 20
0.0
 11
1.0
 21
1.0
 12
4288.025893962542
 22
6187.824596510066
 13
0.0
 23
0.0
 14
1.0
 24
1.0
 15
0.0
 25
0.0
 16
0.0
 26
0.0
 36
1.0
 17
0.0
 27
0.0
 37
0.0
 40
12375.64919302013
 41
0.6929779322414842
 42
50.0
 43
0.0
 44
0.0
 50
0.0
 51
0.0
 71
     0
 72
   100
 73
     1
 74
     1
 75
     0
 76
     0
 77
     0
 78
     0
281
     0
 65
     1
110
0.0
120
0.0
130
0.0
111
1.0
121
0.0
131
0.0
112
0.0
122
1.0
132
0.0
 79
     0
146
0.0
  0
ENDTAB
  0
TABLE
  2
LTYPE
  5
5
330
0
100
AcDbSymbolTable
 70
    47
  0
LTYPE
  5
14
330
5
100
AcDbSymbolTableRecord
100
AcDbLinetypeTableRecord
  2
ByBlock
 70
     0
  3

 72
    65
 73
     0
 40
0.0
  0
LTYPE
  5
15
330
5
100
AcDbSymbolTableRecord
100
AcDbLinetypeTableRecord
  2
ByLayer
 70
     0
  3

 72
    65
 73
     0
 40
0.0
  0
LTYPE
  5
16
330
5
100
AcDbSymbolTableRecord
100
AcDbLinetypeTableRecord
  2
Continuous
 70
     0
  3
Solid line
 72
    65
 73
     0
 40
0.0
  0
LTYPE
  5
2A
330
5
100
AcDbSymbolTableRecord
100
AcDbLinetypeTableRecord
  2
HIDDEN
 70
     0
  3
_ _ _ _ _ _ _ _ _ _ _ _ _ _ 
 72
    65
 73
     2
 40
9.524999999999998
 49
6.349999999999999
 74
     0
 49
-3.174999999999999
 74
     0
  0
LTYPE
  5
2B
330
5
100
AcDbSymbolTableRecord
100
AcDbLinetypeTableRecord
  2
DASHED
 70
     0
  3
__ __ __ __ __ __ __ __ __ 
 72
    65
 73
     2
 40
19.05
 49
12.7
 74
     0
 49
-6.349999999999999
 74
     0
  0
LTYPE
  5
2C
330
5
100
AcDbSymbolTableRecord
100
AcDbLinetypeTableRecord
  2
CENTER
 70
     0
  3
____ _ ____ _ ____ _ ____ _ 
 72
    65
 73
     4
 40
50.8
 49
31.75
 74
     0
 49
-6.349999999999999
 74
     0
 49
6.349999999999999
 74
     0
 49
-6.349999999999999
 74
     0
  0
LTYPE
  5
2D
330
5
100
AcDbSymbolTableRecord
100
AcDbLinetypeTableRecord
  2
PHANTOM
 70
     0
  3
_____ _ _ _____ _ _ _____ _ _ 
 72
    65
 73
     6
 40
63.50000000000001
 49
31.75
 74
     0
 49
-6.349999999999999
 74
     0
 49
6.349999999999999
 74
     0
 49
-6.349999999999999
 74
     0
 49
6.349999999999999
 74
     0
 49
-6.349999999999999
 74
     0
  0
LTYPE
  5
2E
330
5
100
AcDbSymbolTableRecord
100
AcDbLinetypeTableRecord
  2
DOT
 70
     0
  3
...........................
 72
    65
 73
     2
 40
6.349999999999999
 49
0.0
 74
     0
 49
-6.349999999999999
 74
     0
  0
LTYPE
  5
2F
330
5
100
AcDbSymbolTableRecord
100
AcDbLinetypeTableRecord
  2
DASHDOT
 70
     0
  3
__ . __ . __ . __ . __ . __ . 
 72
    65
 73
     4
 40
25.4
 49
12.7
 74
     0
 49
-6.349999999999999
 74
     0
 49
0.0
 74
     0
 49
-6.349999999999999
 74
     0
  0
LTYPE
  5
30
330
5
100
AcDbSymbolTableRecord
100
AcDbLinetypeTableRecord
  2
DIVIDE
 70
     0
  3
__ . . __ . . __ . . __ . . 
 72
    65
 73
     6
 40
31.75
 49
12.7
 74
     0
 49
-6.349999999999999
 74
     0
 49
0.0
 74
     0
 49
-6.349999999999999
 74
     0
 49
0.0
 74
     0
 49
-6.349999999999999
 74
     0
  0
LTYPE
  5
31
330
5
100
AcDbSymbolTableRecord
100
AcDbLinetypeTableRecord
  2
BORDER
 70
     0
  3
__ __ . __ __ . __ __ . __ __ .
 72
    65
 73
     6
 40
44.44999999999999
 49
12.7
 74
     0
 49
-6.349999999999999
 74
     0
 49
12.7
 74
     0
 49
-6.349999999999999
 74
     0
 49
0.0
 74
     0
 49
-6.349999999999999
 74
     0
  0
LTYPE
  5
32
330
5
100
AcDbSymbolTableRecord
100
AcDbLinetypeTableRecord
  2
RAND
 70
     0
  3
Rand __ __ . __ __ . __ __ . __
 72
    65
 73
     6
 40
1.75
 49
0.5
 74
     0
 49
-0.25
 74
     0
 49
0.5
 74
     0
 49
-0.25
 74
     0
 49
0.0
 74
     0
 49
-0.25
 74
     0
  0
LTYPE
  5
33
330
5
100
AcDbSymbolTableRecord
100
AcDbLinetypeTableRecord
  2
RAND2
 70
     0
  3
Rand (.5x) __.__.__.__.__.__.__
 72
    65
 73
     6
 40
0.875
 49
0.25
 74
     0
 49
-0.125
 74
     0
 49
0.25
 74
     0
 49
-0.125
 74
     0
 49
0.0
 74
     0
 49
-0.125
 74
     0
  0
LTYPE
  5
34
330
5
100
AcDbSymbolTableRecord
100
AcDbLinetypeTableRecord
  2
RANDX2
 70
     0
  3
Rand (2x) ____  ____  .  ____  
 72
    65
 73
     6
 40
3.5
 49
1.0
 74
     0
 49
-0.5
 74
     0
 49
1.0
 74
     0
 49
-0.5
 74
     0
 49
0.0
 74
     0
 49
-0.5
 74
     0
  0
LTYPE
  5
35
330
5
100
AcDbSymbolTableRecord
100
AcDbLinetypeTableRecord
  2
MITTE
 70
     0
  3
Mitte ____ _ ____ _ ____ _ ____
 72
    65
 73
     4
 40
2.0
 49
1.25
 74
     0
 49
-0.25
 74
     0
 49
0.25
 74
     0
 49
-0.25
 74
     0
  0
LTYPE
  5
36
330
5
100
AcDbSymbolTableRecord
100
AcDbLinetypeTableRecord
  2
MITTE2
 70
     0
  3
Mitte (.5x) ___ _ ___ _ ___ _ _
 72
    65
 73
     4
 40
1.125
 49
0.7500000000000001
 74
     0
 49
-0.125
 74
     0
 49
0.125
 74
     0
 49
-0.125
 74
     0
  0
LTYPE
  5
37
330
5
100
AcDbSymbolTableRecord
100
AcDbLinetypeTableRecord
  2
MITTEX2
 70
     0
  3
Mitte (2x) ________  __  ______
 72
    65
 73
     4
 40
4.0
 49
2.5
 74
     0
 49
-0.5
 74
     0
 49
0.5
 74
     0
 49
-0.5
 74
     0
  0
LTYPE
  5
38
330
5
100
AcDbSymbolTableRecord
100
AcDbLinetypeTableRecord
  2
STRICHPUNKT
 70
     0
  3
Strichpunkt __ . __ . __ . __ .
 72
    65
 73
     4
 40
1.0
 49
0.5
 74
     0
 49
-0.25
 74
     0
 49
0.0
 74
     0
 49
-0.25
 74
     0
  0
LTYPE
  5
39
330
5
100
AcDbSymbolTableRecord
100
AcDbLinetypeTableRecord
  2
STRICHPUNKT2
 70
     0
  3
Strichpunkt (.5x) _._._._._._._
 72
    65
 73
     4
 40
0.5
 49
0.25
 74
     0
 49
-0.125
 74
     0
 49
0.0
 74
     0
 49
-0.125
 74
     0
  0
LTYPE
  5
3A
330
5
100
AcDbSymbolTableRecord
100
AcDbLinetypeTableRecord
  2
STRICHPUNKTX2
 70
     0
  3
Strichpunkt (2x) ____  .  ____ 
 72
    65
 73
     4
 40
2.0
 49
1.0
 74
     0
 49
-0.5
 74
     0
 49
0.0
 74
     0
 49
-0.5
 74
     0
  0
LTYPE
  5
3B
330
5
100
AcDbSymbolTableRecord
100
AcDbLinetypeTableRecord
  2
STRICHLINIE
 70
     0
  3
Strichlinie __ __ __ __ __ __ _
 72
    65
 73
     2
 40
0.75
 49
0.5
 74
     0
 49
-0.25
 74
     0
  0
LTYPE
  5
3C
330
5
100
AcDbSymbolTableRecord
100
AcDbLinetypeTableRecord
  2
STRICHLINIE2
 70
     0
  3
Strichlinie (.5x) _ _ _ _ _ _ _
 72
    65
 73
     2
 40
0.375
 49
0.25
 74
     0
 49
-0.125
 74
     0
  0
LTYPE
  5
3D
330
5
100
AcDbSymbolTableRecord
100
AcDbLinetypeTableRecord
  2
STRICHLINIEX2
 70
     0
  3
Strichlinie (2x) ____  ____  __
 72
    65
 73
     2
 40
1.5
 49
1.0
 74
     0
 49
-0.5
 74
     0
  0
LTYPE
  5
3E
330
5
100
AcDbSymbolTableRecord
100
AcDbLinetypeTableRecord
  2
GETRENNT
 70
     0
  3
Getrennt ____ . . ____ . . ____
 72
    65
 73
     6
 40
1.25
 49
0.5
 74
     0
 49
-0.25
 74
     0
 49
0.0
 74
     0
 49
-0.25
 74
     0
 49
0.0
 74
     0
 49
-0.25
 74
     0
  0
LTYPE
  5
3F
330
5
100
AcDbSymbolTableRecord
100
AcDbLinetypeTableRecord
  2
GETRENNT2
 70
     0
  3
Getrennt (.5x) __..__..__..__..
 72
    65
 73
     6
 40
0.625
 49
0.25
 74
     0
 49
-0.125
 74
     0
 49
0.0
 74
     0
 49
-0.125
 74
     0
 49
0.0
 74
     0
 49
-0.125
 74
     0
  0
LTYPE
  5
40
330
5
100
AcDbSymbolTableRecord
100
AcDbLinetypeTableRecord
  2
GETRENNTX2
 70
     0
  3
Getrennt (2x) ________  .  .  _
 72
    65
 73
     6
 40
2.5
 49
1.0
 74
     0
 49
-0.5
 74
     0
 49
0.0
 74
     0
 49
-0.5
 74
     0
 49
0.0
 74
     0
 49
-0.5
 74
     0
  0
LTYPE
  5
41
330
5
100
AcDbSymbolTableRecord
100
AcDbLinetypeTableRecord
  2
PUNKT
 70
     0
  3
Punkt . . . . . . . . . . . . .
 72
    65
 73
     2
 40
0.25
 49
0.0
 74
     0
 49
-0.25
 74
     0
  0
LTYPE
  5
42
330
5
100
AcDbSymbolTableRecord
100
AcDbLinetypeTableRecord
  2
PUNKT2
 70
     0
  3
Punkt (.5x) ...................
 72
    65
 73
     2
 40
0.125
 49
0.0
 74
     0
 49
-0.125
 74
     0
  0
LTYPE
  5
43
330
5
100
AcDbSymbolTableRecord
100
AcDbLinetypeTableRecord
  2
PUNKTX2
 70
     0
  3
Punkt (2x) .  .  .  .  .  .  . 
 72
    65
 73
     2
 40
0.5
 49
0.0
 74
     0
 49
-0.5
 74
     0
  0
LTYPE
  5
44
330
5
100
AcDbSymbolTableRecord
100
AcDbLinetypeTableRecord
  2
VERDECKT
 70
     0
  3
Verdeckt __ __ __ __ __ __ __ _
 72
    65
 73
     2
 40
0.375
 49
0.25
 74
     0
 49
-0.125
 74
     0
  0
LTYPE
  5
45
330
5
100
AcDbSymbolTableRecord
100
AcDbLinetypeTableRecord
  2
VERDECKT2
 70
     0
  3
Verdeckt (.5x) _ _ _ _ _ _ _ _ 
 72
    65
 73
     2
 40
0.1875
 49
0.125
 74
     0
 49
-0.0625
 74
     0
  0
LTYPE
  5
46
330
5
100
AcDbSymbolTableRecord
100
AcDbLinetypeTableRecord
  2
VERDECKTX2
 70
     0
  3
Verdeckt (2x) ____ ____ ____ __
 72
    65
 73
     2
 40
0.75
 49
0.5
 74
     0
 49
-0.25
 74
     0
  0
LTYPE
  5
47
330
5
100
AcDbSymbolTableRecord
100
AcDbLinetypeTableRecord
  2
PHANTOM2
 70
     0
  3
Phantom (.5x) ___ _ _ ___ _ _ _
 72
    65
 73
     6
 40
1.25
 49
0.6250000000000001
 74
     0
 49
-0.125
 74
     0
 49
0.125
 74
     0
 49
-0.125
 74
     0
 49
0.125
 74
     0
 49
-0.125
 74
     0
  0
LTYPE
  5
48
330
5
100
AcDbSymbolTableRecord
100
AcDbLinetypeTableRecord
  2
PHANTOMX2
 70
     0
  3
Phantom (2x) ____________    __
 72
    65
 73
     6
 40
5.0
 49
2.5
 74
     0
 49
-0.5
 74
     0
 49
0.5
 74
     0
 49
-0.5
 74
     0
 49
0.5
 74
     0
 49
-0.5
 74
     0
  0
LTYPE
  5
49
330
5
100
AcDbSymbolTableRecord
100
AcDbLinetypeTableRecord
  2
PUNKTE
 70
     0
  3
Punkte - - - - - - - - - - - - 
 72
    65
 73
     2
 40
0.1
 49
0.05
 74
     0
 49
-0.05
 74
     0
  0
LTYPE
  5
4A
330
5
100
AcDbSymbolTableRecord
100
AcDbLinetypeTableRecord
  2
ACAD_ISO02W100
 70
     0
  3
__ __ __ __ __ __ __ __ __ __ _
 72
    65
 73
     2
 40
15.0
 49
12.0
 74
     0
 49
-3.0
 74
     0
  0
LTYPE
  5
4B
330
5
100
AcDbSymbolTableRecord
100
AcDbLinetypeTableRecord
  2
ACAD_ISO03W100
 70
     0
  3
__    __    __    __    __    _
 72
    65
 73
     2
 40
30.0
 49
12.0
 74
     0
 49
-18.0
 74
     0
  0
LTYPE
  5
4C
330
5
100
AcDbSymbolTableRecord
100
AcDbLinetypeTableRecord
  2
ACAD_ISO04W100
 70
     0
  3
____ . ____ . ____ . ____ . ___
 72
    65
 73
     4
 40
30.5
 49
24.0
 74
     0
 49
-3.0
 74
     0
 49
0.5
 74
     0
 49
-3.0
 74
     0
  0
LTYPE
  5
4D
330
5
100
AcDbSymbolTableRecord
100
AcDbLinetypeTableRecord
  2
ACAD_ISO05W100
 70
     0
  3
____ .. ____ .. ____ .. ____ ..
 72
    65
 73
     6
 40
34.0
 49
24.0
 74
     0
 49
-3.0
 74
     0
 49
0.5
 74
     0
 49
-3.0
 74
     0
 49
0.5
 74
     0
 49
-3.0
 74
     0
  0
LTYPE
  5
4E
330
5
100
AcDbSymbolTableRecord
100
AcDbLinetypeTableRecord
  2
ACAD_ISO06W100
 70
     0
  3
____ ... ____ ... ____ ... ____
 72
    65
 73
     6
 40
34.0
 49
24.0
 74
     0
 49
-3.0
 74
     0
 49
0.5
 74
     0
 49
-3.0
 74
     0
 49
0.5
 74
     0
 49
-3.0
 74
     0
  0
LTYPE
  5
4F
330
5
100
AcDbSymbolTableRecord
100
AcDbLinetypeTableRecord
  2
ACAD_ISO07W100
 70
     0
  3
. . . . . . . . . . . . . . . .
 72
    65
 73
     2
 40
3.5
 49
0.5
 74
     0
 49
-3.0
 74
     0
  0
LTYPE
  5
50
330
5
100
AcDbSymbolTableRecord
100
AcDbLinetypeTableRecord
  2
ACAD_ISO08W100
 70
     0
  3
____ __ ____ __ ____ __ ____ __
 72
    65
 73
     4
 40
36.0
 49
24.0
 74
     0
 49
-3.0
 74
     0
 49
6.0
 74
     0
 49
-3.0
 74
     0
  0
LTYPE
  5
51
330
5
100
AcDbSymbolTableRecord
100
AcDbLinetypeTableRecord
  2
ACAD_ISO09W100
 70
     0
  3
____ __ __ ____ __ __ ____ __ _
 72
    65
 73
     6
 40
45.0
 49
24.0
 74
     0
 49
-3.0
 74
     0
 49
6.0
 74
     0
 49
-3.0
 74
     0
 49
6.0
 74
     0
 49
-3.0
 74
     0
  0
LTYPE
  5
52
330
5
100
AcDbSymbolTableRecord
100
AcDbLinetypeTableRecord
  2
ACAD_ISO10W100
 70
     0
  3
__ . __ . __ . __ . __ . __ . _
 72
    65
 73
     4
 40
18.5
 49
12.0
 74
     0
 49
-3.0
 74
     0
 49
0.5
 74
     0
 49
-3.0
 74
     0
  0
LTYPE
  5
53
330
5
100
AcDbSymbolTableRecord
100
AcDbLinetypeTableRecord
  2
ACAD_ISO11W100
 70
     0
  3
__ __ . __ __ . __ __ . __ __ .
 72
    65
 73
     6
 40
33.5
 49
12.0
 74
     0
 49
-3.0
 74
     0
 49
12.0
 74
     0
 49
-3.0
 74
     0
 49
0.5
 74
     0
 49
-3.0
 74
     0
  0
LTYPE
  5
54
330
5
100
AcDbSymbolTableRecord
100
AcDbLinetypeTableRecord
  2
ACAD_ISO12W100
 70
     0
  3
__ . . __ . . __ . . __ . . __ 
 72
    65
 73
     6
 40
22.0
 49
12.0
 74
     0
 49
-3.0
 74
     0
 49
0.5
 74
     0
 49
-3.0
 74
     0
 49
0.5
 74
     0
 49
-3.0
 74
     0
  0
LTYPE
  5
55
330
5
100
AcDbSymbolTableRecord
100
AcDbLinetypeTableRecord
  2
ACAD_ISO13W100
 70
     0
  3
__ __ . . __ __ . . __ __ . . _
 72
    65
 73
     6
 40
33.5
 49
12.0
 74
     0
 49
-3.0
 74
     0
 49
12.0
 74
     0
 49
-3.0
 74
     0
 49
0.5
 74
     0
 49
-3.0
 74
     0
  0
LTYPE
  5
56
330
5
100
AcDbSymbolTableRecord
100
AcDbLinetypeTableRecord
  2
ACAD_ISO14W100
 70
     0
  3
__ . . . __ . . . __ . . . __ .
 72
    65
 73
     6
 40
22.0
 49
12.0
 74
     0
 49
-3.0
 74
     0
 49
0.5
 74
     0
 49
-3.0
 74
     0
 49
0.5
 74
     0
 49
-3.0
 74
     0
  0
LTYPE
  5
57
330
5
100
AcDbSymbolTableRecord
100
AcDbLinetypeTableRecord
  2
ACAD_ISO15W100
 70
     0
  3
__ __ . . . __ __ . . . __ __ .
 72
    65
 73
     6
 40
33.5
 49
12.0
 74
     0
 49
-3.0
 74
     0
 49
12.0
 74
     0
 49
-3.0
 74
     0
 49
0.5
 74
     0
 49
-3.0
 74
     0
  0
ENDTAB
  0
TABLE
  2
LAYER
  5
2
330
0
100
AcDbSymbolTable
 70
     2
  0
LAYER
  5
10
330
2
100
AcDbSymbolTableRecord
100
AcDbLayerTableRecord
  2
0
 70
     0
 62
     7
  6
Continuous
370
    -3
390
F
  0
LAYER
  5
58
330
2
100
AcDbSymbolTableRecord
100
AcDbLayerTableRecord
  2
1
 70
     0
 62
     7
  6
Continuous
370
    -3
390
F
  0
ENDTAB
  0
TABLE
  2
STYLE
  5
3
330
0
100
AcDbSymbolTable
 70
     5
  0
STYLE
  5
11
330
3
100
AcDbSymbolTableRecord
100
AcDbTextStyleTableRecord
  2
Standard
 70
     0
 40
0.0
 41
1.0
 50
0.0
 71
     0
 42
75.0
  3
txt
  4

  0
STYLE
  5
59
330
3
100
AcDbSymbolTableRecord
100
AcDbTextStyleTableRecord
  2
ITALIC
 70
     0
 40
0.0
 41
1.0
 50
0.0
 71
     0
 42
75.0
  3
ITALIC
  4

  0
STYLE
  5
5A
330
3
100
AcDbSymbolTableRecord
100
AcDbTextStyleTableRecord
  2
SIMPLEX
 70
     0
 40
0.0
 41
1.0
 50
0.0
 71
     0
 42
75.0
  3
SIMPLEX
  4

  0
STYLE
  5
5B
330
3
100
AcDbSymbolTableRecord
100
AcDbTextStyleTableRecord
  2
COMPLEX
 70
     0
 40
0.0
 41
1.0
 50
0.0
 71
     0
 42
75.0
  3
COMPLEX
  4

  0
STYLE
  5
1D8
330
3
100
AcDbSymbolTableRecord
100
AcDbTextStyleTableRecord
  2
ARIAL
 70
     0
 40
0.0
 41
1.0
 50
0.0
 71
     0
 42
75.0
  3
arial.ttf
  4

1001
ACAD
1000
Arial
1071
        0
  0
ENDTAB
  0
TABLE
  2
VIEW
  5
6
330
0
100
AcDbSymbolTable
 70
     0
  0
ENDTAB
  0
TABLE
  2
UCS
  5
7
330
0
100
AcDbSymbolTable
 70
     0
  0
ENDTAB
  0
TABLE
  2
APPID
  5
9
330
0
100
AcDbSymbolTable
 70
     1
  0
APPID
  5
12
330
9
100
AcDbSymbolTableRecord
100
AcDbRegAppTableRecord
  2
ACAD
 70
     0
  0
ENDTAB
  0
TABLE
  2
DIMSTYLE
  5
A
330
0
100
AcDbSymbolTable
 70
     1
100
AcDbDimStyleTable
 71
     0
  0
DIMSTYLE
105
29
330
A
100
AcDbSymbolTableRecord
100
AcDbDimStyleTableRecord
  2
Standard
 70
     0
340
11
  0
ENDTAB
  0
TABLE
  2
BLOCK_RECORD
  5
1
330
0
100
AcDbSymbolTable
 70
     1
  0
BLOCK_RECORD
  5
21
330
1
100
AcDbSymbolTableRecord
100
AcDbBlockTableRecord
  2
*Model_Space
340
24
  0
BLOCK_RECORD
  5
1D
330
1
100
AcDbSymbolTableRecord
100
AcDbBlockTableRecord
  2
*Paper_Space
340
20
  0
BLOCK_RECORD
  5
25
330
1
100
AcDbSymbolTableRecord
100
AcDbBlockTableRecord
  2
*Paper_Space0
340
28
  0
ENDTAB
  0
ENDSEC
  0
SECTION
  2
BLOCKS
  0
BLOCK
  5
22
330
21
100
AcDbEntity
  8
0
100
AcDbBlockBegin
  2
*Model_Space
 70
     0
 10
0.0
 20
0.0
 30
0.0
  3
*Model_Space
  1

  0
ENDBLK
  5
23
330
21
100
AcDbEntity
  8
0
100
AcDbBlockEnd
  0
BLOCK
  5
1E
330
1D
100
AcDbEntity
 67
     1
  8
0
100
AcDbBlockBegin
  2
*Paper_Space
 70
     0
 10
0.0
 20
0.0
 30
0.0
  3
*Paper_Space
  1

  0
ENDBLK
  5
1F
330
1D
100
AcDbEntity
 67
     1
  8
0
100
AcDbBlockEnd
  0
BLOCK
  5
26
330
25
100
AcDbEntity
  8
0
100
AcDbBlockBegin
  2
*Paper_Space0
 70
     0
 10
0.0
 20
0.0
 30
0.0
  3
*Paper_Space0
  1

  0
ENDBLK
  5
27
330
25
100
AcDbEntity
  8
0
100
AcDbBlockEnd
  0
ENDSEC
  0
SECTION
  2
ENTITIES
  0
CIRCLE
  5
5D
102
{ACAD_REACTORS
330
5C
102
}
330
21
100
AcDbEntity
  8
1
  6
Continuous
 62
     7
100
AcDbCircle
 10
2457.023271062317
 20
7628.562560512406
 30
0.0
 40
395.0
  0
LINE
  5
5E
102
{ACAD_REACTORS
330
5C
102
}
330
21
100
AcDbEntity
  8
1
  6
Continuous
 62
     7
100
AcDbLine
 10
2319.335558624954
 20
7246.374968812211
 30
0.0
 11
2267.974122679509
 21
7122.377493569756
 31
0.0
  0
LINE
  5
5F
102
{ACAD_REACTORS
330
5C
102
}
330
21
100
AcDbEntity
  8
1
  6
Continuous
 62
     7
100
AcDbLine
 10
2284.135748436275
 20
7260.95520758532
 30
0.0
 11
2232.774312490828
 21
7136.957732342866
 31
0.0
  0
LINE
  5
60
102
{ACAD_REACTORS
330
5C
102
}
330
21
100
AcDbEntity
  8
1
  6
Continuous
 62
     7
100
AcDbLine
 10
2280.398382475985
 20
7265.1233230671
 30
0.0
 11
2324.744600036526
 21
7246.754518313576
 31
0.0
  0
LINE
  5
61
102
{ACAD_REACTORS
330
5C
102
}
330
21
100
AcDbEntity
  8
1
  6
Continuous
 62
     7
100
AcDbLine
 10
2328.222935889423
 20
7255.151963904129
 30
0.0
 11
2324.744600036526
 21
7246.754518313576
 31
0.0
  0
LINE
  5
62
102
{ACAD_REACTORS
330
5C
102
}
330
21
100
AcDbEntity
  8
1
  6
Continuous
 62
     7
100
AcDbLine
 10
2283.881281509794
 20
7273.5317851509
 30
0.0
 11
2280.398382475985
 21
7265.1233230671
 31
0.0
  0
LINE
  5
63
102
{ACAD_REACTORS
330
5C
102
}
330
21
100
AcDbEntity
  8
1
  6
Continuous
 62
     7
100
AcDbLine
 10
2280.659957603962
 20
7262.394927288037
 30
0.0
 11
2322.234536566969
 21
7245.174172831608
 31
0.0
  0
LINE
  5
64
102
{ACAD_REACTORS
330
5C
102
}
330
21
100
AcDbEntity
  8
1
  6
Continuous
 62
     7
100
AcDbLine
 10
2280.659957603962
 20
7262.394927288037
 30
0.0
 11
2280.398382475985
 21
7265.1233230671
 31
0.0
  0
LINE
  5
65
102
{ACAD_REACTORS
330
5C
102
}
330
21
100
AcDbEntity
  8
1
  6
Continuous
 62
     7
100
AcDbLine
 10
2322.234536566969
 20
7245.174172831608
 30
0.0
 11
2324.744600036526
 21
7246.754518313576
 31
0.0
  0
LINE
  5
66
102
{ACAD_REACTORS
330
5C
102
}
330
21
100
AcDbEntity
  8
1
  6
Continuous
 62
     7
100
AcDbLine
 10
2232.774312490828
 20
7136.957732342866
 30
0.0
 11
2267.974122679509
 21
7122.377493569756
 31
0.0
  0
LINE
  5
67
102
{ACAD_REACTORS
330
5C
102
}
330
21
100
AcDbEntity
  8
1
  6
Continuous
 62
     7
100
AcDbLine
 10
2236.985540105024
 20
7147.124535163294
 30
0.0
 11
2272.185350293704
 21
7132.544296390185
 31
0.0
  0
CIRCLE
  5
68
102
{ACAD_REACTORS
330
5C
102
}
330
21
100
AcDbEntity
  8
1
  6
Continuous
 62
     7
100
AcDbCircle
 10
2370.898081355476
 20
7238.857680100043
 30
0.0
 40
3.776415005640336
  0
CIRCLE
  5
69
102
{ACAD_REACTORS
330
5C
102
}
330
21
100
AcDbEntity
  8
1
  6
Continuous
 62
     7
100
AcDbCircle
 10
2543.212618157606
 20
7239.284281825106
 30
0.0
 40
3.776415005640336
  0
LINE
  5
6A
102
{ACAD_REACTORS
330
5C
102
}
330
21
100
AcDbEntity
  8
1
  6
Continuous
 62
     7
100
AcDbLine
 10
2609.717493370455
 20
7210.146049158334
 30
0.0
 11
2644.917303559134
 21
7224.726287931445
 31
0.0
  0
LINE
  5
6B
102
{ACAD_REACTORS
330
5C
102
}
330
21
100
AcDbEntity
  8
1
  6
Continuous
 62
     7
100
AcDbLine
 10
2608.591562405583
 20
7213.629161974814
 30
0.0
 11
2643.791372594263
 21
7228.209400747926
 31
0.0
  0
LINE
  5
6C
102
{ACAD_REACTORS
330
5C
102
}
330
21
100
AcDbEntity
  8
1
  6
Continuous
 62
     7
100
AcDbLine
 10
2629.993497889681
 20
7260.755541980855
 30
0.0
 11
2644.917303559134
 21
7224.726287931445
 31
0.0
  0
LINE
  5
6D
102
{ACAD_REACTORS
330
5C
102
}
330
21
100
AcDbEntity
  8
1
  6
Continuous
 62
     7
100
AcDbLine
 10
2594.793687701002
 20
7246.175303207746
 30
0.0
 11
2609.717493370455
 21
7210.146049158334
 31
0.0
  0
LINE
  5
6E
102
{ACAD_REACTORS
330
5C
102
}
330
21
100
AcDbEntity
  8
1
  6
Continuous
 62
     7
100
AcDbLine
 10
2588.894746855126
 20
7246.351929719224
 30
0.0
 11
2633.240964415668
 21
7264.720734472748
 31
0.0
  0
LINE
  5
6F
102
{ACAD_REACTORS
330
5C
102
}
330
21
100
AcDbEntity
  8
1
  6
Continuous
 62
     7
100
AcDbLine
 10
2629.762628562771
 20
7273.118180063301
 30
0.0
 11
2633.240964415668
 21
7264.720734472748
 31
0.0
  0
LINE
  5
70
102
{ACAD_REACTORS
330
5C
102
}
330
21
100
AcDbEntity
  8
1
  6
Continuous
 62
     7
100
AcDbLine
 10
2585.411847821317
 20
7254.760391803023
 30
0.0
 11
2588.894746855126
 21
7246.351929719224
 31
0.0
  0
LINE
  5
71
102
{ACAD_REACTORS
330
5C
102
}
330
21
100
AcDbEntity
  8
1
  6
Continuous
 62
     7
100
AcDbLine
 10
2591.008975559045
 20
7244.607624108869
 30
0.0
 11
2632.583554522053
 21
7261.828378565299
 31
0.0
  0
LINE
  5
72
102
{ACAD_REACTORS
330
5C
102
}
330
21
100
AcDbEntity
  8
1
  6
Continuous
 62
     7
100
AcDbLine
 10
2591.008975559045
 20
7244.607624108869
 30
0.0
 11
2588.894746855126
 21
7246.351929719224
 31
0.0
  0
LINE
  5
73
102
{ACAD_REACTORS
330
5C
102
}
330
21
100
AcDbEntity
  8
1
  6
Continuous
 62
     7
100
AcDbLine
 10
2632.583554522053
 20
7261.828378565299
 30
0.0
 11
2633.240964415668
 21
7264.720734472748
 31
0.0
  0
CIRCLE
  5
74
102
{ACAD_REACTORS
330
5C
102
}
330
21
100
AcDbEntity
  8
1
  6
Continuous
 62
     7
100
AcDbCircle
 10
2457.023271062317
 20
7628.562560512406
 30
0.0
 40
12.5
  0
CIRCLE
  5
75
102
{ACAD_REACTORS
330
5C
102
}
330
21
100
AcDbEntity
  8
1
  6
Continuous
 62
     7
100
AcDbCircle
 10
2457.023271062317
 20
7628.562560512406
 30
0.0
 40
10.75
  0
LINE
  5
76
330
21
100
AcDbEntity
  8
1
  6
Continuous
 62
     7
100
AcDbLine
 10
4667.974321221765
 20
5451.716264618362
 30
0.0
 11
4667.974321221765
 21
7146.849906785161
 31
0.0
  0
LINE
  5
77
330
21
100
AcDbEntity
  8
1
  6
Continuous
 62
     7
100
AcDbLine
 10
3877.974321221766
 20
5451.716264618363
 30
0.0
 11
3878.214665346574
 21
7146.849889746592
 31
0.0
  0
LINE
  5
78
330
21
100
AcDbEntity
  8
1
  6
Continuous
 62
     7
100
AcDbLine
 10
3878.214665346574
 20
7141.091817315322
 30
0.0
 11
4668.214665346574
 21
7141.091817315322
 31
0.0
  0
LINE
  5
79
330
21
100
AcDbEntity
  8
1
  6
Continuous
 62
     7
100
AcDbLine
 10
3880.173698246344
 20
7160.708658814392
 30
0.0
 11
4666.255632446803
 21
7160.708658814392
 31
0.0
  0
ARC
  5
7A
330
21
100
AcDbEntity
  8
1
  6
Continuous
 62
     7
100
AcDbCircle
 10
4273.214665346572
 20
6702.659538977086
 30
0.0
 40
612.4322783382344
100
AcDbArc
 50
52.16372560732885
 51
127.8362743926712
  0
ARC
  5
7B
330
21
100
AcDbEntity
  8
1
  6
Continuous
 62
     7
100
AcDbCircle
 10
3928.214665346574
 20
7146.849889746592
 30
0.0
 40
50.0
100
AcDbArc
 50
127.8362743926711
 51
180.0
  0
ARC
  5
7C
330
21
100
AcDbEntity
  8
1
  6
Continuous
 62
     7
100
AcDbCircle
 10
4618.221294758535
 20
7146.858425169398
 30
0.0
 40
49.98919247737802
100
AcDbArc
 50
0.0
 51
52.16372560732885
  0
LINE
  5
7D
330
21
100
AcDbEntity
  8
1
  6
Continuous
 62
     7
100
AcDbLine
 10
3947.974321221766
 20
5256.642643119803
 30
0.0
 11
4272.974321221766
 21
5256.642643119803
 31
0.0
  0
LINE
  5
7E
330
21
100
AcDbEntity
  8
1
  6
Continuous
 62
     7
100
AcDbLine
 10
3877.974321221766
 20
5491.642643119803
 30
0.0
 11
4667.974321221765
 21
5491.642643119803
 31
0.0
  0
LINE
  5
7F
330
21
100
AcDbEntity
  8
1
  6
Continuous
 62
     7
100
AcDbLine
 10
4597.974321221766
 20
5256.642643119803
 30
0.0
 11
4597.974321221766
 21
5386.642643119802
 31
0.0
  0
LINE
  5
80
330
21
100
AcDbEntity
  8
1
  6
Continuous
 62
     7
100
AcDbLine
 10
3947.974321221766
 20
5256.642643119803
 30
0.0
 11
3947.974321221766
 21
5386.642643119802
 31
0.0
  0
ARC
  5
81
330
21
100
AcDbEntity
  8
1
  6
Continuous
 62
     7
100
AcDbCircle
 10
4272.974321221766
 20
6117.54119384444
 30
0.0
 40
799.8985507246369
100
AcDbArc
 50
242.6088767953518
 51
246.0272869392503
  0
ARC
  5
82
330
21
100
AcDbEntity
  8
1
  6
Continuous
 62
     7
100
AcDbCircle
 10
4617.974321221764
 20
5451.716264618363
 30
0.0
 40
50.0
100
AcDbArc
 50
297.3911232046481
 51
0.0
  0
ARC
  5
83
330
21
100
AcDbEntity
  8
1
  6
Continuous
 62
     7
100
AcDbCircle
 10
3927.974321221766
 20
5451.716264618363
 30
0.0
 40
50.0
100
AcDbArc
 50
180.0000000000008
 51
242.6088767953518
  0
LINE
  5
84
330
21
100
AcDbEntity
  8
1
  6
Continuous
 62
     7
100
AcDbLine
 10
3947.974321221766
 20
5386.642643119802
 30
0.0
 11
4597.974321221766
 21
5386.642643119802
 31
0.0
  0
ARC
  5
85
330
21
100
AcDbEntity
  8
1
  6
Continuous
 62
     7
100
AcDbCircle
 10
4272.974321221766
 20
6117.54119384444
 30
0.0
 40
799.8985507246369
100
AcDbArc
 50
293.9727130607497
 51
297.3911232046481
  0
LINE
  5
86
330
21
100
AcDbEntity
  8
1
  6
Continuous
 62
     7
100
AcDbLine
 10
3926.623261001418
 20
5396.515095471007
 30
0.0
 11
4619.325381442115
 21
5396.515095471007
 31
0.0
  0
LINE
  5
87
330
21
100
AcDbEntity
  8
1
  6
Continuous
 62
     7
100
AcDbLine
 10
3877.974321221766
 20
5480.121081152158
 30
0.0
 11
4667.974321221765
 21
5480.121081152158
 31
0.0
  0
LWPOLYLINE
  5
88
330
21
100
AcDbEntity
  8
1
  6
Continuous
 62
     7
100
AcDbPolyline
 90
        4
 70
     1
 43
0.0
 10
4066.420417110627
 20
5327.580556559369
 10
4162.888994901112
 20
5327.580556559369
 10
4162.888994901112
 20
5273.893215581272
 10
4066.420417110627
 20
5273.893215581272
  0
LWPOLYLINE
  5
89
330
21
100
AcDbEntity
  8
1
  6
Continuous
 62
     7
100
AcDbPolyline
 90
        4
 70
     1
 43
0.0
 10
4390.056490715082
 20
5328.929040199387
 10
4486.525068505566
 20
5328.929040199387
 10
4486.525068505566
 20
5275.241699221292
 10
4390.056490715082
 20
5275.241699221292
  0
LINE
  5
8A
330
21
100
AcDbEntity
  8
1
  6
Continuous
 62
     7
100
AcDbLine
 10
4272.974321221766
 20
5256.642643119803
 30
0.0
 11
4597.974321221766
 21
5256.642643119803
 31
0.0
  0
CIRCLE
  5
8B
330
21
100
AcDbEntity
  8
1
  6
Continuous
 62
     7
100
AcDbCircle
 10
4121.814321221765
 20
5651.642643119803
 30
0.0
 40
25.4
  0
CIRCLE
  5
8C
330
21
100
AcDbEntity
  8
1
  6
Continuous
 62
     7
100
AcDbCircle
 10
4121.814321221765
 20
6101.642643119802
 30
0.0
 40
25.4
  0
CIRCLE
  5
8D
330
21
100
AcDbEntity
  8
1
  6
Continuous
 62
     7
100
AcDbCircle
 10
4121.814321221765
 20
6516.642643119801
 30
0.0
 40
25.4
  0
CIRCLE
  5
8E
330
21
100
AcDbEntity
  8
1
  6
Continuous
 62
     7
100
AcDbCircle
 10
4121.814321221765
 20
6716.642643119802
 30
0.0
 40
25.4
  0
CIRCLE
  5
8F
330
21
100
AcDbEntity
  8
1
  6
Continuous
 62
     7
100
AcDbCircle
 10
4121.814321221765
 20
6716.642643119802
 30
0.0
 40
15.0
  0
CIRCLE
  5
90
330
21
100
AcDbEntity
  8
1
  6
Continuous
 62
     7
100
AcDbCircle
 10
4121.814321221765
 20
6516.642643119801
 30
0.0
 40
15.0
  0
CIRCLE
  5
91
330
21
100
AcDbEntity
  8
1
  6
Continuous
 62
     7
100
AcDbCircle
 10
4121.814321221765
 20
5651.642643119803
 30
0.0
 40
15.0
  0
CIRCLE
  5
92
330
21
100
AcDbEntity
  8
1
  6
Continuous
 62
     7
100
AcDbCircle
 10
4068.776129179535
 20
7016.642643119801
 30
0.0
 40
19.05
  0
CIRCLE
  5
93
330
21
100
AcDbEntity
  8
1
  6
Continuous
 62
     7
100
AcDbCircle
 10
4066.325267744617
 20
5526.642643119803
 30
0.0
 40
19.05
  0
ARC
  5
94
330
21
100
AcDbEntity
  8
1
  6
Continuous
 62
     7
100
AcDbCircle
 10
4124.265182656683
 20
7016.642643119801
 30
0.0
 40
19.05
100
AcDbArc
 50
270.0
 51
90.0
  0
LINE
  5
95
330
21
100
AcDbEntity
  8
1
  6
Continuous
 62
     7
100
AcDbLine
 10
4068.776129179535
 20
7035.692643119803
 30
0.0
 11
4124.265182656683
 21
7035.692643119803
 31
0.0
  0
LINE
  5
96
330
21
100
AcDbEntity
  8
1
  6
Continuous
 62
     7
100
AcDbLine
 10
4068.776129179535
 20
6997.592643119801
 30
0.0
 11
4124.265182656683
 21
6997.592643119801
 31
0.0
  0
ARC
  5
97
330
21
100
AcDbEntity
  8
1
  6
Continuous
 62
     7
100
AcDbCircle
 10
4121.814321221765
 20
5526.642643119803
 30
0.0
 40
19.05
100
AcDbArc
 50
270.0
 51
90.0
  0
LINE
  5
98
330
21
100
AcDbEntity
  8
1
  6
Continuous
 62
     7
100
AcDbLine
 10
4066.325267744617
 20
5545.692643119803
 30
0.0
 11
4121.814321221765
 21
5545.692643119803
 31
0.0
  0
LINE
  5
99
330
21
100
AcDbEntity
  8
1
  6
Continuous
 62
     7
100
AcDbLine
 10
4066.325267744617
 20
5507.592643119803
 30
0.0
 11
4121.814321221765
 21
5507.592643119803
 31
0.0
  0
ARC
  5
9A
330
21
100
AcDbEntity
  8
1
  6
Continuous
 62
     7
100
AcDbCircle
 10
4070.131917526711
 20
7016.505932656395
 30
0.0
 40
20.0
100
AcDbArc
 50
288.9743065408752
 51
73.60437344805657
  0
ARC
  5
9B
330
21
100
AcDbEntity
  8
1
  6
Continuous
 62
     7
100
AcDbCircle
 10
4066.811477712676
 20
5526.753073428216
 30
0.0
 40
20.0
100
AcDbArc
 50
286.6602720919161
 51
71.25862108335306
  0
LWPOLYLINE
  5
9C
330
21
100
AcDbEntity
  8
1
  6
Continuous
 62
     7
100
AcDbPolyline
 90
        4
 70
     1
 43
0.0
 10
4186.036358951218
 20
7032.936820436697
 10
4193.902513517994
 20
7032.936820436697
 10
4193.902513517994
 20
7000.348465802908
 10
4186.036358951218
 20
7000.348465802908
  0
LWPOLYLINE
  5
9D
330
21
100
AcDbEntity
  8
1
  6
Continuous
 62
     7
100
AcDbPolyline
 90
        4
 70
     1
 43
0.0
 10
4183.422358446494
 20
6733.112757413798
 10
4191.28851301327
 20
6733.112757413798
 10
4191.28851301327
 20
6700.524402780009
 10
4183.422358446494
 20
6700.524402780009
  0
LWPOLYLINE
  5
9E
330
21
100
AcDbEntity
  8
1
  6
Continuous
 62
     7
100
AcDbPolyline
 90
        4
 70
     1
 43
0.0
 10
4183.5854975163
 20
6532.936820436697
 10
4191.451652083077
 20
6532.936820436697
 10
4191.451652083077
 20
6500.348465802908
 10
4183.5854975163
 20
6500.348465802908
  0
LWPOLYLINE
  5
9F
330
21
100
AcDbEntity
  8
1
  6
Continuous
 62
     7
100
AcDbPolyline
 90
        4
 70
     1
 43
0.0
 10
4183.5854975163
 20
6117.936820436696
 10
4191.451652083077
 20
6117.936820436696
 10
4191.451652083077
 20
6085.348465802908
 10
4183.5854975163
 20
6085.348465802908
  0
LWPOLYLINE
  5
A0
330
21
100
AcDbEntity
  8
1
  6
Continuous
 62
     7
100
AcDbPolyline
 90
        4
 70
     1
 43
0.0
 10
4183.5854975163
 20
5667.936820436697
 10
4191.451652083077
 20
5667.936820436697
 10
4191.451652083077
 20
5635.348465802908
 10
4183.5854975163
 20
5635.348465802908
  0
LWPOLYLINE
  5
A1
330
21
100
AcDbEntity
  8
1
  6
Continuous
 62
     7
100
AcDbPolyline
 90
        4
 70
     1
 43
0.0
 10
4183.5854975163
 20
5542.936820436697
 10
4191.451652083077
 20
5542.936820436697
 10
4191.451652083077
 20
5510.348465802907
 10
4183.5854975163
 20
5510.348465802907
  0
LWPOLYLINE
  5
A2
330
21
100
AcDbEntity
  8
1
  6
Continuous
 62
     7
100
AcDbPolyline
 90
        4
 70
     1
 43
0.0
 10
4354.534891443928
 20
6832.936820436696
 10
4362.401046010705
 20
6832.936820436696
 10
4362.401046010705
 20
6800.348465802906
 10
4354.534891443928
 20
6800.348465802906
  0
LWPOLYLINE
  5
A3
330
21
100
AcDbEntity
  8
1
  6
Continuous
 62
     7
100
AcDbPolyline
 90
        4
 70
     1
 43
0.0
 10
4354.534891443929
 20
6632.936820436694
 10
4362.401046010705
 20
6632.936820436694
 10
4362.401046010705
 20
6600.348465802905
 10
4354.534891443929
 20
6600.348465802905
  0
LWPOLYLINE
  5
A4
330
21
100
AcDbEntity
  8
1
  6
Continuous
 62
     7
100
AcDbPolyline
 90
        4
 70
     1
 43
0.0
 10
4354.534891443928
 20
6432.936820436696
 10
4362.401046010705
 20
6432.936820436696
 10
4362.401046010705
 20
6400.348465802906
 10
4354.534891443928
 20
6400.348465802906
  0
LWPOLYLINE
  5
A5
330
21
100
AcDbEntity
  8
1
  6
Continuous
 62
     7
100
AcDbPolyline
 90
        4
 70
     1
 43
0.0
 10
4354.534891443929
 20
6017.936820436695
 10
4362.401046010705
 20
6017.936820436695
 10
4362.401046010705
 20
5985.348465802906
 10
4354.534891443929
 20
5985.348465802906
  0
CIRCLE
  5
A6
330
21
100
AcDbEntity
  8
1
  6
Continuous
 62
     7
100
AcDbCircle
 10
4424.134321221765
 20
6816.642643119803
 30
0.0
 40
25.4
  0
CIRCLE
  5
A7
330
21
100
AcDbEntity
  8
1
  6
Continuous
 62
     7
100
AcDbCircle
 10
4424.134321221766
 20
6001.642643119803
 30
0.0
 40
25.4
  0
CIRCLE
  5
A8
330
21
100
AcDbEntity
  8
1
  6
Continuous
 62
     7
100
AcDbCircle
 10
4424.134321221765
 20
6416.642643119804
 30
0.0
 40
25.4
  0
CIRCLE
  5
A9
330
21
100
AcDbEntity
  8
1
  6
Continuous
 62
     7
100
AcDbCircle
 10
4424.134321221765
 20
6416.642643119804
 30
0.0
 40
15.0
  0
CIRCLE
  5
AA
330
21
100
AcDbEntity
  8
1
  6
Continuous
 62
     7
100
AcDbCircle
 10
4424.134321221766
 20
6616.642643119802
 30
0.0
 40
25.4
  0
CIRCLE
  5
AB
330
21
100
AcDbEntity
  8
1
  6
Continuous
 62
     7
100
AcDbCircle
 10
4424.134321221766
 20
6616.642643119802
 30
0.0
 40
15.0
  0
CIRCLE
  5
AC
330
21
100
AcDbEntity
  8
1
  6
Continuous
 62
     7
100
AcDbCircle
 10
4443.268448624244
 20
5651.642643119803
 30
0.0
 40
19.05
  0
CIRCLE
  5
AD
330
21
100
AcDbEntity
  8
1
  6
Continuous
 62
     7
100
AcDbCircle
 10
4443.268448624244
 20
5526.642643119803
 30
0.0
 40
19.05
  0
ARC
  5
AE
330
21
100
AcDbEntity
  8
1
  6
Continuous
 62
     7
100
AcDbCircle
 10
4424.218448624243
 20
5651.642643119803
 30
0.0
 40
19.05
100
AcDbArc
 50
90.0
 51
270.0
  0
ARC
  5
AF
330
21
100
AcDbEntity
  8
1
  6
Continuous
 62
     7
100
AcDbCircle
 10
4424.218448624243
 20
5526.642643119803
 30
0.0
 40
19.05
100
AcDbArc
 50
90.0
 51
270.0
  0
LINE
  5
B0
330
21
100
AcDbEntity
  8
1
  6
Continuous
 62
     7
100
AcDbLine
 10
4424.218448624243
 20
5670.692643119803
 30
0.0
 11
4443.268448624244
 21
5670.692643119803
 31
0.0
  0
LINE
  5
B1
330
21
100
AcDbEntity
  8
1
  6
Continuous
 62
     7
100
AcDbLine
 10
4424.218448624243
 20
5632.592643119802
 30
0.0
 11
4443.268448624244
 21
5632.592643119802
 31
0.0
  0
LINE
  5
B2
330
21
100
AcDbEntity
  8
1
  6
Continuous
 62
     7
100
AcDbLine
 10
4424.218448624243
 20
5545.692643119803
 30
0.0
 11
4443.268448624244
 21
5545.692643119803
 31
0.0
  0
LINE
  5
B3
330
21
100
AcDbEntity
  8
1
  6
Continuous
 62
     7
100
AcDbLine
 10
4424.218448624243
 20
5507.592643119803
 30
0.0
 11
4443.268448624244
 21
5507.592643119803
 31
0.0
  0
ARC
  5
B4
330
21
100
AcDbEntity
  8
1
  6
Continuous
 62
     7
100
AcDbCircle
 10
4439.576843348407
 20
5526.622275689363
 30
0.0
 40
20.0
100
AcDbArc
 50
107.5377972830529
 51
252.0789889389693
  0
ARC
  5
B5
330
21
100
AcDbEntity
  8
1
  6
Continuous
 62
     7
100
AcDbCircle
 10
4438.492992686097
 20
5651.265101855002
 30
0.0
 40
20.0
100
AcDbArc
 50
103.7415620604389
 51
249.006797580811
  0
LINE
  5
B6
330
21
100
AcDbEntity
  8
1
  6
Continuous
 62
     7
100
AcDbLine
 10
4260.714665346571
 20
7336.09181731532
 30
0.0
 11
4285.714665346572
 21
7336.09181731532
 31
0.0
  0
LINE
  5
B7
330
21
100
AcDbEntity
  8
1
  6
Continuous
 62
     7
100
AcDbLine
 10
4285.714665346572
 20
7314.964238902345
 30
0.0
 11
4285.714665346572
 21
7336.09181731532
 31
0.0
  0
LINE
  5
B8
330
21
100
AcDbEntity
  8
1
  6
Continuous
 62
     7
100
AcDbLine
 10
4260.714665346571
 20
7314.964238902345
 30
0.0
 11
4260.714665346571
 21
7336.09181731532
 31
0.0
  0
LINE
  5
B9
330
21
100
AcDbEntity
  8
1
  6
Continuous
 62
     7
100
AcDbLine
 10
4260.714665346571
 20
7332.879820417462
 30
0.0
 11
4285.714665346572
 21
7332.879820417462
 31
0.0
  0
LINE
  5
BA
330
21
100
AcDbEntity
  8
1
  6
Continuous
 62
     7
100
AcDbLine
 10
4260.714665346571
 20
7326.999554237393
 30
0.0
 11
4285.714665346572
 21
7326.999554237393
 31
0.0
  0
LINE
  5
BB
330
21
100
AcDbEntity
  8
1
  6
Continuous
 62
     7
100
AcDbLine
 10
2852.023271062317
 20
5469.724540729033
 30
0.0
 11
2852.023271062317
 21
6775.408991661745
 31
0.0
  0
LINE
  5
BC
330
21
100
AcDbEntity
  8
1
  6
Continuous
 62
     7
100
AcDbLine
 10
2062.023271062317
 20
5469.724540729033
 30
0.0
 11
2062.023271062317
 21
6775.408991661745
 31
0.0
  0
LINE
  5
BD
330
21
100
AcDbEntity
  8
1
  6
Continuous
 62
     7
100
AcDbLine
 10
2062.023271062317
 20
6769.650919230475
 30
0.0
 11
2852.023271062317
 21
6769.650919230475
 31
0.0
  0
LINE
  5
BE
330
21
100
AcDbEntity
  8
1
  6
Continuous
 62
     7
100
AcDbLine
 10
2063.982303962088
 20
6789.267760729545
 30
0.0
 11
2850.064238162547
 21
6789.267760729545
 31
0.0
  0
ARC
  5
BF
330
21
100
AcDbEntity
  8
1
  6
Continuous
 62
     7
100
AcDbCircle
 10
2457.023271062317
 20
6331.218640892239
 30
0.0
 40
612.4322783382344
100
AcDbArc
 50
52.16372560732885
 51
127.8362743926712
  0
ARC
  5
C0
330
21
100
AcDbEntity
  8
1
  6
Continuous
 62
     7
100
AcDbCircle
 10
2112.023271062318
 20
6775.408991661745
 30
0.0
 40
50.0
100
AcDbArc
 50
127.8362743926711
 51
180.0
  0
ARC
  5
C1
330
21
100
AcDbEntity
  8
1
  6
Continuous
 62
     7
100
AcDbCircle
 10
2802.023271062317
 20
6775.408991661745
 30
0.0
 40
50.0
100
AcDbArc
 50
0.0
 51
52.16372560732885
  0
LINE
  5
C2
330
21
100
AcDbEntity
  8
1
  6
Continuous
 62
     7
100
AcDbLine
 10
2132.023271062317
 20
5274.650919230473
 30
0.0
 11
2457.023271062317
 21
5274.650919230473
 31
0.0
  0
LINE
  5
C3
330
21
100
AcDbEntity
  8
1
  6
Continuous
 62
     7
100
AcDbLine
 10
2062.023271062317
 20
5509.650919230473
 30
0.0
 11
2852.023271062317
 21
5509.650919230473
 31
0.0
  0
LINE
  5
C4
330
21
100
AcDbEntity
  8
1
  6
Continuous
 62
     7
100
AcDbLine
 10
2782.023271062318
 20
5274.650919230473
 30
0.0
 11
2782.023271062318
 21
5404.650919230473
 31
0.0
  0
LINE
  5
C5
330
21
100
AcDbEntity
  8
1
  6
Continuous
 62
     7
100
AcDbLine
 10
2132.023271062317
 20
5274.650919230473
 30
0.0
 11
2132.023271062317
 21
5404.650919230473
 31
0.0
  0
ARC
  5
C6
330
21
100
AcDbEntity
  8
1
  6
Continuous
 62
     7
100
AcDbCircle
 10
2457.023271062317
 20
6135.54946995511
 30
0.0
 40
799.8985507246369
100
AcDbArc
 50
242.6088767953518
 51
246.0272869392503
  0
ARC
  5
C7
330
21
100
AcDbEntity
  8
1
  6
Continuous
 62
     7
100
AcDbCircle
 10
2802.023271062317
 20
5469.724540729033
 30
0.0
 40
50.0
100
AcDbArc
 50
297.3911232046481
 51
0.0
  0
ARC
  5
C8
330
21
100
AcDbEntity
  8
1
  6
Continuous
 62
     7
100
AcDbCircle
 10
2112.023271062318
 20
5469.724540729033
 30
0.0
 40
50.0
100
AcDbArc
 50
180.0000000000008
 51
242.6088767953518
  0
LINE
  5
C9
330
21
100
AcDbEntity
  8
1
  6
Continuous
 62
     7
100
AcDbLine
 10
2132.023271062317
 20
5404.650919230473
 30
0.0
 11
2782.023271062318
 21
5404.650919230473
 31
0.0
  0
ARC
  5
CA
330
21
100
AcDbEntity
  8
1
  6
Continuous
 62
     7
100
AcDbCircle
 10
2457.023271062317
 20
6135.54946995511
 30
0.0
 40
799.8985507246369
100
AcDbArc
 50
293.9727130607497
 51
297.3911232046481
  0
LINE
  5
CB
330
21
100
AcDbEntity
  8
1
  6
Continuous
 62
     7
100
AcDbLine
 10
2110.672210841969
 20
5414.523371581678
 30
0.0
 11
2803.374331282666
 21
5414.523371581678
 31
0.0
  0
LINE
  5
CC
330
21
100
AcDbEntity
  8
1
  6
Continuous
 62
     7
100
AcDbLine
 10
2062.023271062317
 20
5498.129357262828
 30
0.0
 11
2852.023271062317
 21
5498.129357262828
 31
0.0
  0
LWPOLYLINE
  5
CD
330
21
100
AcDbEntity
  8
1
  6
Continuous
 62
     7
100
AcDbPolyline
 90
        4
 70
     1
 43
0.0
 10
2250.469366951179
 20
5345.588832670039
 10
2346.937944741664
 20
5345.588832670039
 10
2346.937944741664
 20
5291.901491691943
 10
2250.469366951179
 20
5291.901491691943
  0
LWPOLYLINE
  5
CE
330
21
100
AcDbEntity
  8
1
  6
Continuous
 62
     7
100
AcDbPolyline
 90
        4
 70
     1
 43
0.0
 10
2574.105440555634
 20
5346.937316310058
 10
2670.574018346119
 20
5346.937316310058
 10
2670.574018346119
 20
5293.249975331963
 10
2574.105440555634
 20
5293.249975331963
  0
LINE
  5
CF
330
21
100
AcDbEntity
  8
1
  6
Continuous
 62
     7
100
AcDbLine
 10
2457.023271062317
 20
5274.650919230473
 30
0.0
 11
2782.023271062318
 21
5274.650919230473
 31
0.0
  0
CIRCLE
  5
D0
330
21
100
AcDbEntity
  8
1
  6
Continuous
 62
     7
100
AcDbCircle
 10
2305.863271062317
 20
5669.650919230473
 30
0.0
 40
25.4
  0
CIRCLE
  5
D1
330
21
100
AcDbEntity
  8
1
  6
Continuous
 62
     7
100
AcDbCircle
 10
2305.863271062317
 20
6044.650919230473
 30
0.0
 40
25.4
  0
CIRCLE
  5
D2
330
21
100
AcDbEntity
  8
1
  6
Continuous
 62
     7
100
AcDbCircle
 10
2305.863271062317
 20
6244.650919230473
 30
0.0
 40
25.4
  0
CIRCLE
  5
D3
330
21
100
AcDbEntity
  8
1
  6
Continuous
 62
     7
100
AcDbCircle
 10
2305.863271062317
 20
6444.650919230475
 30
0.0
 40
25.4
  0
CIRCLE
  5
D4
330
21
100
AcDbEntity
  8
1
  6
Continuous
 62
     7
100
AcDbCircle
 10
2305.863271062317
 20
6444.650919230475
 30
0.0
 40
15.0
  0
CIRCLE
  5
D5
330
21
100
AcDbEntity
  8
1
  6
Continuous
 62
     7
100
AcDbCircle
 10
2305.863271062317
 20
6244.650919230473
 30
0.0
 40
15.0
  0
CIRCLE
  5
D6
330
21
100
AcDbEntity
  8
1
  6
Continuous
 62
     7
100
AcDbCircle
 10
2305.863271062317
 20
5669.650919230473
 30
0.0
 40
15.0
  0
CIRCLE
  5
D7
330
21
100
AcDbEntity
  8
1
  6
Continuous
 62
     7
100
AcDbCircle
 10
2250.374217585168
 20
6644.650919230475
 30
0.0
 40
19.05
  0
CIRCLE
  5
D8
330
21
100
AcDbEntity
  8
1
  6
Continuous
 62
     7
100
AcDbCircle
 10
2250.374217585168
 20
5544.650919230473
 30
0.0
 40
19.05
  0
ARC
  5
D9
330
21
100
AcDbEntity
  8
1
  6
Continuous
 62
     7
100
AcDbCircle
 10
2305.863271062317
 20
6644.650919230475
 30
0.0
 40
19.05
100
AcDbArc
 50
270.0
 51
90.0
  0
LINE
  5
DA
330
21
100
AcDbEntity
  8
1
  6
Continuous
 62
     7
100
AcDbLine
 10
2250.374217585168
 20
6663.700919230475
 30
0.0
 11
2305.863271062317
 21
6663.700919230475
 31
0.0
  0
LINE
  5
DB
330
21
100
AcDbEntity
  8
1
  6
Continuous
 62
     7
100
AcDbLine
 10
2250.374217585168
 20
6625.600919230475
 30
0.0
 11
2305.863271062317
 21
6625.600919230475
 31
0.0
  0
ARC
  5
DC
330
21
100
AcDbEntity
  8
1
  6
Continuous
 62
     7
100
AcDbCircle
 10
2305.863271062317
 20
5544.650919230473
 30
0.0
 40
19.05
100
AcDbArc
 50
270.0
 51
90.0
  0
LINE
  5
DD
330
21
100
AcDbEntity
  8
1
  6
Continuous
 62
     7
100
AcDbLine
 10
2250.374217585168
 20
5563.700919230473
 30
0.0
 11
2305.863271062317
 21
5563.700919230473
 31
0.0
  0
LINE
  5
DE
330
21
100
AcDbEntity
  8
1
  6
Continuous
 62
     7
100
AcDbLine
 10
2250.374217585168
 20
5525.600919230473
 30
0.0
 11
2305.863271062317
 21
5525.600919230473
 31
0.0
  0
ARC
  5
DF
330
21
100
AcDbEntity
  8
1
  6
Continuous
 62
     7
100
AcDbCircle
 10
2251.730005932345
 20
6644.514208767067
 30
0.0
 40
20.0
100
AcDbArc
 50
288.9743065408752
 51
73.60437344805657
  0
ARC
  5
E0
330
21
100
AcDbEntity
  8
1
  6
Continuous
 62
     7
100
AcDbCircle
 10
2250.860427553227
 20
5544.761349538887
 30
0.0
 40
20.0
100
AcDbArc
 50
286.6602720919161
 51
71.25862108335306
  0
LWPOLYLINE
  5
E1
330
21
100
AcDbEntity
  8
1
  6
Continuous
 62
     7
100
AcDbPolyline
 90
        4
 70
     1
 43
0.0
 10
2367.634447356852
 20
6660.945096547369
 10
2375.500601923628
 20
6660.945096547369
 10
2375.500601923628
 20
6628.356741913582
 10
2367.634447356852
 20
6628.356741913582
  0
LWPOLYLINE
  5
E2
330
21
100
AcDbEntity
  8
1
  6
Continuous
 62
     7
100
AcDbPolyline
 90
        4
 70
     1
 43
0.0
 10
2367.471308287045
 20
6461.121033524469
 10
2375.337462853821
 20
6461.121033524469
 10
2375.337462853821
 20
6428.53267889068
 10
2367.471308287045
 20
6428.53267889068
  0
LWPOLYLINE
  5
E3
330
21
100
AcDbEntity
  8
1
  6
Continuous
 62
     7
100
AcDbPolyline
 90
        4
 70
     1
 43
0.0
 10
2367.634447356852
 20
6260.945096547369
 10
2375.500601923628
 20
6260.945096547369
 10
2375.500601923628
 20
6228.35674191358
 10
2367.634447356852
 20
6228.35674191358
  0
LWPOLYLINE
  5
E4
330
21
100
AcDbEntity
  8
1
  6
Continuous
 62
     7
100
AcDbPolyline
 90
        4
 70
     1
 43
0.0
 10
2367.634447356852
 20
6060.945096547366
 10
2375.500601923628
 20
6060.945096547366
 10
2375.500601923628
 20
6028.356741913578
 10
2367.634447356852
 20
6028.356741913578
  0
LWPOLYLINE
  5
E5
330
21
100
AcDbEntity
  8
1
  6
Continuous
 62
     7
100
AcDbPolyline
 90
        4
 70
     1
 43
0.0
 10
2367.634447356852
 20
5685.945096547367
 10
2375.500601923628
 20
5685.945096547367
 10
2375.500601923628
 20
5653.356741913579
 10
2367.634447356852
 20
5653.356741913579
  0
LWPOLYLINE
  5
E6
330
21
100
AcDbEntity
  8
1
  6
Continuous
 62
     7
100
AcDbPolyline
 90
        4
 70
     1
 43
0.0
 10
2367.634447356852
 20
5560.945096547367
 10
2375.500601923628
 20
5560.945096547367
 10
2375.500601923628
 20
5528.356741913578
 10
2367.634447356852
 20
5528.356741913578
  0
LWPOLYLINE
  5
E7
330
21
100
AcDbEntity
  8
1
  6
Continuous
 62
     7
100
AcDbPolyline
 90
        4
 70
     1
 43
0.0
 10
2538.583841284481
 20
6560.945096547365
 10
2546.449995851258
 20
6560.945096547365
 10
2546.449995851258
 20
6528.356741913578
 10
2538.583841284481
 20
6528.356741913578
  0
LWPOLYLINE
  5
E8
330
21
100
AcDbEntity
  8
1
  6
Continuous
 62
     7
100
AcDbPolyline
 90
        4
 70
     1
 43
0.0
 10
2538.583841284481
 20
6360.945096547366
 10
2546.449995851258
 20
6360.945096547366
 10
2546.449995851258
 20
6328.356741913577
 10
2538.583841284481
 20
6328.356741913577
  0
LWPOLYLINE
  5
E9
330
21
100
AcDbEntity
  8
1
  6
Continuous
 62
     7
100
AcDbPolyline
 90
        4
 70
     1
 43
0.0
 10
2538.583841284481
 20
6160.945096547365
 10
2546.449995851258
 20
6160.945096547365
 10
2546.449995851258
 20
6128.356741913577
 10
2538.583841284481
 20
6128.356741913577
  0
LWPOLYLINE
  5
EA
330
21
100
AcDbEntity
  8
1
  6
Continuous
 62
     7
100
AcDbPolyline
 90
        4
 70
     1
 43
0.0
 10
2538.583841284481
 20
5960.945096547364
 10
2546.449995851258
 20
5960.945096547364
 10
2546.449995851258
 20
5928.356741913576
 10
2538.583841284481
 20
5928.356741913576
  0
CIRCLE
  5
EB
330
21
100
AcDbEntity
  8
1
  6
Continuous
 62
     7
100
AcDbCircle
 10
2608.183271062317
 20
6544.650919230473
 30
0.0
 40
25.4
  0
CIRCLE
  5
EC
330
21
100
AcDbEntity
  8
1
  6
Continuous
 62
     7
100
AcDbCircle
 10
2608.183271062317
 20
5944.650919230472
 30
0.0
 40
25.4
  0
CIRCLE
  5
ED
330
21
100
AcDbEntity
  8
1
  6
Continuous
 62
     7
100
AcDbCircle
 10
2608.183271062317
 20
6144.650919230473
 30
0.0
 40
25.4
  0
CIRCLE
  5
EE
330
21
100
AcDbEntity
  8
1
  6
Continuous
 62
     7
100
AcDbCircle
 10
2608.183271062317
 20
6144.650919230473
 30
0.0
 40
15.0
  0
CIRCLE
  5
EF
330
21
100
AcDbEntity
  8
1
  6
Continuous
 62
     7
100
AcDbCircle
 10
2608.183271062317
 20
6344.650919230474
 30
0.0
 40
25.4
  0
CIRCLE
  5
F0
330
21
100
AcDbEntity
  8
1
  6
Continuous
 62
     7
100
AcDbCircle
 10
2608.183271062317
 20
6344.650919230474
 30
0.0
 40
15.0
  0
CIRCLE
  5
F1
330
21
100
AcDbEntity
  8
1
  6
Continuous
 62
     7
100
AcDbCircle
 10
2627.317398464795
 20
5669.650919230473
 30
0.0
 40
19.05
  0
CIRCLE
  5
F2
330
21
100
AcDbEntity
  8
1
  6
Continuous
 62
     7
100
AcDbCircle
 10
2627.317398464795
 20
5544.650919230473
 30
0.0
 40
19.05
  0
ARC
  5
F3
330
21
100
AcDbEntity
  8
1
  6
Continuous
 62
     7
100
AcDbCircle
 10
2608.267398464795
 20
5669.650919230473
 30
0.0
 40
19.05
100
AcDbArc
 50
90.0
 51
270.0
  0
ARC
  5
F4
330
21
100
AcDbEntity
  8
1
  6
Continuous
 62
     7
100
AcDbCircle
 10
2608.267398464795
 20
5544.650919230473
 30
0.0
 40
19.05
100
AcDbArc
 50
90.0
 51
270.0
  0
LINE
  5
F5
330
21
100
AcDbEntity
  8
1
  6
Continuous
 62
     7
100
AcDbLine
 10
2608.267398464795
 20
5688.700919230473
 30
0.0
 11
2627.317398464795
 21
5688.700919230473
 31
0.0
  0
LINE
  5
F6
330
21
100
AcDbEntity
  8
1
  6
Continuous
 62
     7
100
AcDbLine
 10
2608.267398464795
 20
5650.600919230473
 30
0.0
 11
2627.317398464795
 21
5650.600919230473
 31
0.0
  0
LINE
  5
F7
330
21
100
AcDbEntity
  8
1
  6
Continuous
 62
     7
100
AcDbLine
 10
2608.267398464795
 20
5563.700919230473
 30
0.0
 11
2627.317398464795
 21
5563.700919230473
 31
0.0
  0
LINE
  5
F8
330
21
100
AcDbEntity
  8
1
  6
Continuous
 62
     7
100
AcDbLine
 10
2608.267398464795
 20
5525.600919230473
 30
0.0
 11
2627.317398464795
 21
5525.600919230473
 31
0.0
  0
ARC
  5
F9
330
21
100
AcDbEntity
  8
1
  6
Continuous
 62
     7
100
AcDbCircle
 10
2623.625793188959
 20
5544.630551800033
 30
0.0
 40
20.0
100
AcDbArc
 50
107.5377972830529
 51
252.0789889389693
  0
ARC
  5
FA
330
21
100
AcDbEntity
  8
1
  6
Continuous
 62
     7
100
AcDbCircle
 10
2622.541942526649
 20
5669.273377965672
 30
0.0
 40
20.0
100
AcDbArc
 50
103.7415620604389
 51
249.006797580811
  0
LINE
  5
FB
330
21
100
AcDbEntity
  8
1
  6
Continuous
 62
     7
100
AcDbLine
 10
2444.523271062315
 20
6964.650919230473
 30
0.0
 11
2469.523271062316
 21
6964.650919230473
 31
0.0
  0
LINE
  5
FC
330
21
100
AcDbEntity
  8
1
  6
Continuous
 62
     7
100
AcDbLine
 10
2469.523271062316
 20
6943.523340817498
 30
0.0
 11
2469.523271062316
 21
6964.650919230473
 31
0.0
  0
LINE
  5
FD
330
21
100
AcDbEntity
  8
1
  6
Continuous
 62
     7
100
AcDbLine
 10
2444.523271062315
 20
6943.523340817498
 30
0.0
 11
2444.523271062315
 21
6964.650919230473
 31
0.0
  0
LINE
  5
FE
330
21
100
AcDbEntity
  8
1
  6
Continuous
 62
     7
100
AcDbLine
 10
2444.523271062315
 20
6961.438922332614
 30
0.0
 11
2469.523271062316
 21
6961.438922332614
 31
0.0
  0
LINE
  5
FF
330
21
100
AcDbEntity
  8
1
  6
Continuous
 62
     7
100
AcDbLine
 10
2444.523271062315
 20
6955.558656152546
 30
0.0
 11
2469.523271062316
 21
6955.558656152546
 31
0.0
  0
LINE
  5
100
330
21
100
AcDbEntity
  8
1
  6
Continuous
 62
     7
100
AcDbLine
 10
2159.381389616518
 20
6866.45933998001
 30
0.0
 11
2754.665152508116
 21
6866.45933998001
 31
0.0
  0
LINE
  5
101
330
21
100
AcDbEntity
  8
1
  6
Continuous
 62
     7
100
AcDbLine
 10
3975.572783900774
 20
7237.900238064857
 30
0.0
 11
4570.856546792372
 21
7237.900238064857
 31
0.0
  0
LINE
  5
102
330
21
100
AcDbEntity
  8
1
  6
Continuous
 62
     7
100
AcDbLine
 10
6675.782095189072
 20
5537.04342198232
 30
0.0
 11
6675.782095189072
 21
7162.211226209278
 31
0.0
  0
LINE
  5
103
330
21
100
AcDbEntity
  8
1
  6
Continuous
 62
     7
100
AcDbLine
 10
5675.67157537098
 20
5537.053346915858
 30
0.0
 11
5675.902000083643
 21
7162.225914816596
 31
0.0
  0
LINE
  5
104
330
21
100
AcDbEntity
  8
1
  6
Continuous
 62
     7
100
AcDbLine
 10
5675.903675626134
 20
7101.043376469931
 30
0.0
 11
6675.782095189072
 21
7101.043376469931
 31
0.0
  0
LINE
  5
105
330
21
100
AcDbEntity
  8
1
  6
Continuous
 62
     7
100
AcDbLine
 10
5725.782095189072
 20
5264.04342198232
 30
0.0
 11
6175.782095189072
 21
5264.04342198232
 31
0.0
  0
LINE
  5
106
330
21
100
AcDbEntity
  8
1
  6
Continuous
 62
     7
100
AcDbLine
 10
5675.680648188817
 20
5601.04342198232
 30
0.0
 11
6675.782095189072
 21
5601.04342198232
 31
0.0
  0
LINE
  5
107
330
21
100
AcDbEntity
  8
1
  6
Continuous
 62
     7
100
AcDbLine
 10
6625.782095189072
 20
5264.04342198232
 30
0.0
 11
6625.782095189072
 21
5469.961382657326
 31
0.0
  0
LINE
  5
108
330
21
100
AcDbEntity
  8
1
  6
Continuous
 62
     7
100
AcDbLine
 10
5725.782095189072
 20
5264.04342198232
 30
0.0
 11
5725.782095189072
 21
5469.928530891877
 31
0.0
  0
LINE
  5
109
330
21
100
AcDbEntity
  8
1
  6
Continuous
 62
     7
100
AcDbLine
 10
5675.67647347253
 20
5571.599382281945
 30
0.0
 11
6675.782095189072
 21
5571.599382281945
 31
0.0
  0
LWPOLYLINE
  5
10A
330
21
100
AcDbEntity
  8
1
  6
Continuous
 62
     7
100
AcDbPolyline
 90
        4
 70
     1
 43
0.0
 10
5966.089254198511
 20
5343.609737100624
 10
6062.557831988996
 20
5343.609737100624
 10
6062.557831988996
 20
5289.922396122529
 10
5966.089254198511
 20
5289.922396122529
  0
LWPOLYLINE
  5
10B
330
21
100
AcDbEntity
  8
1
  6
Continuous
 62
     7
100
AcDbPolyline
 90
        4
 70
     1
 43
0.0
 10
6289.725327802965
 20
5344.958220740643
 10
6386.193905593452
 20
5344.958220740643
 10
6386.193905593452
 20
5291.270879762548
 10
6289.725327802965
 20
5291.270879762548
  0
LINE
  5
10C
330
21
100
AcDbEntity
  8
1
  6
Continuous
 62
     7
100
AcDbLine
 10
6175.782095189072
 20
5264.04342198232
 30
0.0
 11
6625.782095189072
 21
5264.04342198232
 31
0.0
  0
CIRCLE
  5
10D
330
21
100
AcDbEntity
  8
1
  6
Continuous
 62
     7
100
AcDbCircle
 10
6024.622095189073
 20
5761.043421982321
 30
0.0
 40
25.4
  0
CIRCLE
  5
10E
330
21
100
AcDbEntity
  8
1
  6
Continuous
 62
     7
100
AcDbCircle
 10
6024.622095189072
 20
6186.04342198232
 30
0.0
 40
25.4
  0
CIRCLE
  5
10F
330
21
100
AcDbEntity
  8
1
  6
Continuous
 62
     7
100
AcDbCircle
 10
6024.622095189071
 20
6386.043421982321
 30
0.0
 40
25.4
  0
CIRCLE
  5
110
330
21
100
AcDbEntity
  8
1
  6
Continuous
 62
     7
100
AcDbCircle
 10
6024.622095189071
 20
6586.043421982321
 30
0.0
 40
25.4
  0
CIRCLE
  5
111
330
21
100
AcDbEntity
  8
1
  6
Continuous
 62
     7
100
AcDbCircle
 10
6024.622095189071
 20
6586.043421982321
 30
0.0
 40
15.0
  0
CIRCLE
  5
112
330
21
100
AcDbEntity
  8
1
  6
Continuous
 62
     7
100
AcDbCircle
 10
6024.622095189071
 20
6386.043421982321
 30
0.0
 40
15.0
  0
CIRCLE
  5
113
330
21
100
AcDbEntity
  8
1
  6
Continuous
 62
     7
100
AcDbCircle
 10
6024.622095189073
 20
5761.043421982321
 30
0.0
 40
15.0
  0
CIRCLE
  5
114
330
21
100
AcDbEntity
  8
1
  6
Continuous
 62
     7
100
AcDbCircle
 10
5968.412465899106
 20
6786.36500888699
 30
0.0
 40
19.05
  0
CIRCLE
  5
115
330
21
100
AcDbEntity
  8
1
  6
Continuous
 62
     7
100
AcDbCircle
 10
5969.133041711923
 20
5636.043421982321
 30
0.0
 40
19.05
  0
ARC
  5
116
330
21
100
AcDbEntity
  8
1
  6
Continuous
 62
     7
100
AcDbCircle
 10
6023.901519376255
 20
6786.36500888699
 30
0.0
 40
19.05
100
AcDbArc
 50
270.0
 51
90.0
  0
LINE
  5
117
330
21
100
AcDbEntity
  8
1
  6
Continuous
 62
     7
100
AcDbLine
 10
5968.412465899106
 20
6805.41500888699
 30
0.0
 11
6023.901519376255
 21
6805.41500888699
 31
0.0
  0
LINE
  5
118
330
21
100
AcDbEntity
  8
1
  6
Continuous
 62
     7
100
AcDbLine
 10
5968.412465899106
 20
6767.31500888699
 30
0.0
 11
6023.901519376255
 21
6767.31500888699
 31
0.0
  0
ARC
  5
119
330
21
100
AcDbEntity
  8
1
  6
Continuous
 62
     7
100
AcDbCircle
 10
6024.622095189072
 20
5636.043421982321
 30
0.0
 40
19.05
100
AcDbArc
 50
270.0
 51
90.0
  0
LINE
  5
11A
330
21
100
AcDbEntity
  8
1
  6
Continuous
 62
     7
100
AcDbLine
 10
5969.133041711923
 20
5655.093421982321
 30
0.0
 11
6024.622095189072
 21
5655.093421982321
 31
0.0
  0
LINE
  5
11B
330
21
100
AcDbEntity
  8
1
  6
Continuous
 62
     7
100
AcDbLine
 10
5969.133041711923
 20
5616.99342198232
 30
0.0
 11
6024.622095189072
 21
5616.99342198232
 31
0.0
  0
ARC
  5
11C
330
21
100
AcDbEntity
  8
1
  6
Continuous
 62
     7
100
AcDbCircle
 10
5969.768254246283
 20
6786.228298423583
 30
0.0
 40
20.0
100
AcDbArc
 50
288.9743065408752
 51
73.60437344805657
  0
ARC
  5
11D
330
21
100
AcDbEntity
  8
1
  6
Continuous
 62
     7
100
AcDbCircle
 10
5969.619251679982
 20
5636.153852290734
 30
0.0
 40
20.0
100
AcDbArc
 50
286.6602720919161
 51
71.25862108335306
  0
LWPOLYLINE
  5
11E
330
21
100
AcDbEntity
  8
1
  6
Continuous
 62
     7
100
AcDbPolyline
 90
        4
 70
     1
 43
0.0
 10
6085.67269567079
 20
6802.659186203886
 10
6093.538850237567
 20
6802.659186203886
 10
6093.538850237567
 20
6770.070831570096
 10
6085.67269567079
 20
6770.070831570096
  0
LWPOLYLINE
  5
11F
330
21
100
AcDbEntity
  8
1
  6
Continuous
 62
     7
100
AcDbPolyline
 90
        4
 70
     1
 43
0.0
 10
6086.230132413799
 20
6602.513536276314
 10
6094.096286980575
 20
6602.513536276314
 10
6094.096286980575
 20
6569.925181642526
 10
6086.230132413799
 20
6569.925181642526
  0
LWPOLYLINE
  5
120
330
21
100
AcDbEntity
  8
1
  6
Continuous
 62
     7
100
AcDbPolyline
 90
        4
 70
     1
 43
0.0
 10
6086.393271483605
 20
6402.337599299215
 10
6094.259426050382
 20
6402.337599299215
 10
6094.259426050382
 20
6369.749244665428
 10
6086.393271483605
 20
6369.749244665428
  0
LWPOLYLINE
  5
121
330
21
100
AcDbEntity
  8
1
  6
Continuous
 62
     7
100
AcDbPolyline
 90
        4
 70
     1
 43
0.0
 10
6086.393271483607
 20
6202.337599299213
 10
6094.259426050383
 20
6202.337599299213
 10
6094.259426050383
 20
6169.749244665425
 10
6086.393271483607
 20
6169.749244665425
  0
LWPOLYLINE
  5
122
330
21
100
AcDbEntity
  8
1
  6
Continuous
 62
     7
100
AcDbPolyline
 90
        4
 70
     1
 43
0.0
 10
6086.393271483608
 20
5777.337599299213
 10
6094.259426050384
 20
5777.337599299213
 10
6094.259426050384
 20
5744.749244665426
 10
6086.393271483608
 20
5744.749244665426
  0
LWPOLYLINE
  5
123
330
21
100
AcDbEntity
  8
1
  6
Continuous
 62
     7
100
AcDbPolyline
 90
        4
 70
     1
 43
0.0
 10
6086.393271483607
 20
5652.337599299214
 10
6094.259426050383
 20
5652.337599299214
 10
6094.259426050383
 20
5619.749244665425
 10
6086.393271483607
 20
5619.749244665425
  0
LWPOLYLINE
  5
124
330
21
100
AcDbEntity
  8
1
  6
Continuous
 62
     7
100
AcDbPolyline
 90
        4
 70
     1
 43
0.0
 10
6257.342665411235
 20
6702.337599299212
 10
6265.208819978011
 20
6702.337599299212
 10
6265.208819978011
 20
6669.749244665424
 10
6257.342665411235
 20
6669.749244665424
  0
LWPOLYLINE
  5
125
330
21
100
AcDbEntity
  8
1
  6
Continuous
 62
     7
100
AcDbPolyline
 90
        4
 70
     1
 43
0.0
 10
6257.342665411235
 20
6502.337599299211
 10
6265.208819978012
 20
6502.337599299211
 10
6265.208819978012
 20
6469.749244665424
 10
6257.342665411235
 20
6469.749244665424
  0
LWPOLYLINE
  5
126
330
21
100
AcDbEntity
  8
1
  6
Continuous
 62
     7
100
AcDbPolyline
 90
        4
 70
     1
 43
0.0
 10
6257.342665411235
 20
6302.337599299212
 10
6265.208819978011
 20
6302.337599299212
 10
6265.208819978011
 20
6269.749244665423
 10
6257.342665411235
 20
6269.749244665423
  0
LWPOLYLINE
  5
127
330
21
100
AcDbEntity
  8
1
  6
Continuous
 62
     7
100
AcDbPolyline
 90
        4
 70
     1
 43
0.0
 10
6257.342665411235
 20
6102.337599299211
 10
6265.208819978012
 20
6102.337599299211
 10
6265.208819978012
 20
6069.749244665423
 10
6257.342665411235
 20
6069.749244665423
  0
CIRCLE
  5
128
330
21
100
AcDbEntity
  8
1
  6
Continuous
 62
     7
100
AcDbCircle
 10
6326.942095189072
 20
6686.04342198232
 30
0.0
 40
25.4
  0
CIRCLE
  5
129
330
21
100
AcDbEntity
  8
1
  6
Continuous
 62
     7
100
AcDbCircle
 10
6326.942095189072
 20
6086.043421982319
 30
0.0
 40
25.4
  0
CIRCLE
  5
12A
330
21
100
AcDbEntity
  8
1
  6
Continuous
 62
     7
100
AcDbCircle
 10
6326.942095189072
 20
6286.04342198232
 30
0.0
 40
25.4
  0
CIRCLE
  5
12B
330
21
100
AcDbEntity
  8
1
  6
Continuous
 62
     7
100
AcDbCircle
 10
6326.942095189072
 20
6286.04342198232
 30
0.0
 40
15.0
  0
CIRCLE
  5
12C
330
21
100
AcDbEntity
  8
1
  6
Continuous
 62
     7
100
AcDbCircle
 10
6326.942095189072
 20
6486.043421982319
 30
0.0
 40
25.4
  0
CIRCLE
  5
12D
330
21
100
AcDbEntity
  8
1
  6
Continuous
 62
     7
100
AcDbCircle
 10
6326.942095189072
 20
6486.043421982319
 30
0.0
 40
15.0
  0
CIRCLE
  5
12E
330
21
100
AcDbEntity
  8
1
  6
Continuous
 62
     7
100
AcDbCircle
 10
6346.076222591549
 20
5760.654421573947
 30
0.0
 40
19.05
  0
CIRCLE
  5
12F
330
21
100
AcDbEntity
  8
1
  6
Continuous
 62
     7
100
AcDbCircle
 10
6345.624618148921
 20
5635.202817131318
 30
0.0
 40
19.05
  0
ARC
  5
130
330
21
100
AcDbEntity
  8
1
  6
Continuous
 62
     7
100
AcDbCircle
 10
6327.026222591549
 20
5760.654421573947
 30
0.0
 40
19.05
100
AcDbArc
 50
90.0
 51
270.0
  0
ARC
  5
131
330
21
100
AcDbEntity
  8
1
  6
Continuous
 62
     7
100
AcDbCircle
 10
6326.574618148921
 20
5635.202817131318
 30
0.0
 40
19.05
100
AcDbArc
 50
90.0
 51
270.0
  0
LINE
  5
132
330
21
100
AcDbEntity
  8
1
  6
Continuous
 62
     7
100
AcDbLine
 10
6327.026222591549
 20
5779.704421573947
 30
0.0
 11
6346.076222591549
 21
5779.704421573947
 31
0.0
  0
LINE
  5
133
330
21
100
AcDbEntity
  8
1
  6
Continuous
 62
     7
100
AcDbLine
 10
6327.026222591549
 20
5741.604421573947
 30
0.0
 11
6346.076222591549
 21
5741.604421573947
 31
0.0
  0
LINE
  5
134
330
21
100
AcDbEntity
  8
1
  6
Continuous
 62
     7
100
AcDbLine
 10
6326.574618148921
 20
5654.252817131318
 30
0.0
 11
6345.624618148921
 21
5654.252817131318
 31
0.0
  0
LINE
  5
135
330
21
100
AcDbEntity
  8
1
  6
Continuous
 62
     7
100
AcDbLine
 10
6326.574618148921
 20
5616.152817131318
 30
0.0
 11
6345.624618148921
 21
5616.152817131318
 31
0.0
  0
ARC
  5
136
330
21
100
AcDbEntity
  8
1
  6
Continuous
 62
     7
100
AcDbCircle
 10
6341.933012873084
 20
5635.182449700879
 30
0.0
 40
20.0
100
AcDbArc
 50
107.5377972830529
 51
252.0789889389693
  0
ARC
  5
137
330
21
100
AcDbEntity
  8
1
  6
Continuous
 62
     7
100
AcDbCircle
 10
6341.300766653404
 20
5760.276880309146
 30
0.0
 40
20.0
100
AcDbArc
 50
103.7415620604389
 51
249.006797580811
  0
LINE
  5
138
330
21
100
AcDbEntity
  8
1
  6
Continuous
 62
     7
100
AcDbLine
 10
6163.522439313878
 20
7369.043421982322
 30
0.0
 11
6188.522439313878
 21
7369.043421982322
 31
0.0
  0
LINE
  5
139
330
21
100
AcDbEntity
  8
1
  6
Continuous
 62
     7
100
AcDbLine
 10
6188.522439313878
 20
7347.915843569345
 30
0.0
 11
6188.522439313878
 21
7369.043421982322
 31
0.0
  0
LINE
  5
13A
330
21
100
AcDbEntity
  8
1
  6
Continuous
 62
     7
100
AcDbLine
 10
6163.522439313878
 20
7347.915843569345
 30
0.0
 11
6163.522439313878
 21
7369.043421982322
 31
0.0
  0
LINE
  5
13B
330
21
100
AcDbEntity
  8
1
  6
Continuous
 62
     7
100
AcDbLine
 10
6163.522439313878
 20
7365.831425084462
 30
0.0
 11
6188.522439313878
 21
7365.831425084462
 31
0.0
  0
LINE
  5
13C
330
21
100
AcDbEntity
  8
1
  6
Continuous
 62
     7
100
AcDbLine
 10
6163.522439313878
 20
7359.951158904394
 30
0.0
 11
6188.522439313878
 21
7359.951158904394
 31
0.0
  0
LINE
  5
13D
330
21
100
AcDbEntity
  8
1
  6
Continuous
 62
     7
100
AcDbLine
 10
5753.458174331188
 20
7246.082213016567
 30
0.0
 11
6598.217720960308
 21
7246.082213016567
 31
0.0
  0
LINE
  5
13E
330
21
100
AcDbEntity
  8
1
  6
Continuous
 62
     7
100
AcDbLine
 10
5745.671574667378
 20
5467.04342198232
 30
0.0
 11
6605.782095189072
 21
5467.04342198232
 31
0.0
  0
ARC
  5
13F
330
21
100
AcDbEntity
  8
1
  6
Continuous
 62
     7
100
AcDbCircle
 10
5745.671574667378
 20
5537.04342198232
 30
0.0
 40
70.0
100
AcDbArc
 50
179.9918763313478
 51
270.0000000000001
  0
ARC
  5
140
330
21
100
AcDbEntity
  8
1
  6
Continuous
 62
     7
100
AcDbCircle
 10
6605.782095189072
 20
5537.04342198232
 30
0.0
 40
70.0
100
AcDbArc
 50
270.0000000000001
 51
0.0
  0
ARC
  5
141
330
21
100
AcDbEntity
  8
1
  6
Continuous
 62
     7
100
AcDbCircle
 10
6175.837947645748
 20
6422.196979195409
 30
0.0
 40
925.8463973110236
100
AcDbArc
 50
59.84365129537845
 51
120.1557138756404
  0
LINE
  5
142
330
21
100
AcDbEntity
  8
1
  6
Continuous
 62
     7
100
AcDbLine
 10
5675.894853345454
 20
7111.820371416945
 30
0.0
 11
6675.782095189072
 21
7111.820371416945
 31
0.0
  0
LINE
  5
143
330
21
100
AcDbEntity
  8
1
  6
Continuous
 62
     7
100
AcDbLine
 10
5675.681434250801
 20
5606.587473047654
 30
0.0
 11
6675.782095189072
 21
5606.587473047654
 31
0.0
  0
CIRCLE
  5
144
330
21
100
AcDbEntity
  8
1
  6
Continuous
 62
     7
100
AcDbCircle
 10
6175.846168930304
 20
8139.843376469931
 30
0.0
 40
500.0
  0
LINE
  5
145
330
21
100
AcDbEntity
  8
1
  6
Continuous
 62
     7
100
AcDbLine
 10
5997.529736987122
 20
7659.569379116937
 30
0.0
 11
5946.168301041676
 21
7535.571903874481
 31
0.0
  0
LINE
  5
146
330
21
100
AcDbEntity
  8
1
  6
Continuous
 62
     7
100
AcDbLine
 10
5962.329926798442
 20
7674.149617890044
 30
0.0
 11
5910.968490852996
 21
7550.15214264759
 31
0.0
  0
LINE
  5
147
330
21
100
AcDbEntity
  8
1
  6
Continuous
 62
     7
100
AcDbLine
 10
5958.592560838152
 20
7678.317733371824
 30
0.0
 11
6002.938778398693
 21
7659.9489286183
 31
0.0
  0
LINE
  5
148
330
21
100
AcDbEntity
  8
1
  6
Continuous
 62
     7
100
AcDbLine
 10
6006.805827715794
 20
7669.284811526011
 30
0.0
 11
6002.938778398693
 21
7659.9489286183
 31
0.0
  0
LINE
  5
149
330
21
100
AcDbEntity
  8
1
  6
Continuous
 62
     7
100
AcDbLine
 10
5962.463212560183
 20
7687.662313254378
 30
0.0
 11
5958.592560838152
 21
7678.317733371824
 31
0.0
  0
LINE
  5
14A
330
21
100
AcDbEntity
  8
1
  6
Continuous
 62
     7
100
AcDbLine
 10
5958.854135966128
 20
7675.589337592761
 30
0.0
 11
6000.428714929137
 21
7658.368583136333
 31
0.0
  0
LINE
  5
14B
330
21
100
AcDbEntity
  8
1
  6
Continuous
 62
     7
100
AcDbLine
 10
5958.854135966128
 20
7675.589337592761
 30
0.0
 11
5958.592560838152
 21
7678.317733371824
 31
0.0
  0
LINE
  5
14C
330
21
100
AcDbEntity
  8
1
  6
Continuous
 62
     7
100
AcDbLine
 10
6000.428714929137
 20
7658.368583136333
 30
0.0
 11
6002.938778398693
 21
7659.9489286183
 31
0.0
  0
LINE
  5
14D
330
21
100
AcDbEntity
  8
1
  6
Continuous
 62
     7
100
AcDbLine
 10
5910.968490852996
 20
7550.15214264759
 30
0.0
 11
5946.168301041676
 21
7535.571903874481
 31
0.0
  0
LINE
  5
14E
330
21
100
AcDbEntity
  8
1
  6
Continuous
 62
     7
100
AcDbLine
 10
5915.17971846719
 20
7560.318945468019
 30
0.0
 11
5950.37952865587
 21
7545.738706694909
 31
0.0
  0
CIRCLE
  5
14F
330
21
100
AcDbEntity
  8
1
  6
Continuous
 62
     7
100
AcDbCircle
 10
6065.98804634231
 20
7647.509869479747
 30
0.0
 40
3.776415005640336
  0
CIRCLE
  5
150
330
21
100
AcDbEntity
  8
1
  6
Continuous
 62
     7
100
AcDbCircle
 10
6285.305247374669
 20
7648.078981286842
 30
0.0
 40
3.776415005640336
  0
LINE
  5
151
330
21
100
AcDbEntity
  8
1
  6
Continuous
 62
     7
100
AcDbLine
 10
6369.068820797134
 20
7623.582580813594
 30
0.0
 11
6404.268630985814
 21
7638.162819586705
 31
0.0
  0
LINE
  5
152
330
21
100
AcDbEntity
  8
1
  6
Continuous
 62
     7
100
AcDbLine
 10
6367.942889832262
 20
7627.065693630076
 30
0.0
 11
6403.142700020942
 21
7641.645932403186
 31
0.0
  0
LINE
  5
153
330
21
100
AcDbEntity
  8
1
  6
Continuous
 62
     7
100
AcDbLine
 10
6389.34482531636
 20
7674.192073636117
 30
0.0
 11
6404.268630985814
 21
7638.162819586705
 31
0.0
  0
LINE
  5
154
330
21
100
AcDbEntity
  8
1
  6
Continuous
 62
     7
100
AcDbLine
 10
6354.145015127681
 20
7659.611834863007
 30
0.0
 11
6369.068820797134
 21
7623.582580813594
 31
0.0
  0
LINE
  5
155
330
21
100
AcDbEntity
  8
1
  6
Continuous
 62
     7
100
AcDbLine
 10
6348.246074281805
 20
7659.788461374485
 30
0.0
 11
6392.592291842349
 21
7678.157266128009
 31
0.0
  0
LINE
  5
156
330
21
100
AcDbEntity
  8
1
  6
Continuous
 62
     7
100
AcDbLine
 10
6388.748909325563
 20
7687.436012325415
 30
0.0
 11
6392.592291842349
 21
7678.157266128009
 31
0.0
  0
LINE
  5
157
330
21
100
AcDbEntity
  8
1
  6
Continuous
 62
     7
100
AcDbLine
 10
6344.386791076372
 20
7669.105595230083
 30
0.0
 11
6348.246074281805
 21
7659.788461374485
 31
0.0
  0
LINE
  5
158
330
21
100
AcDbEntity
  8
1
  6
Continuous
 62
     7
100
AcDbLine
 10
6350.360302985725
 20
7658.04415576413
 30
0.0
 11
6391.934881948733
 21
7675.264910220559
 31
0.0
  0
LINE
  5
159
330
21
100
AcDbEntity
  8
1
  6
Continuous
 62
     7
100
AcDbLine
 10
6350.360302985725
 20
7658.04415576413
 30
0.0
 11
6348.246074281805
 21
7659.788461374485
 31
0.0
  0
LINE
  5
15A
330
21
100
AcDbEntity
  8
1
  6
Continuous
 62
     7
100
AcDbLine
 10
6391.934881948733
 20
7675.264910220559
 30
0.0
 11
6392.592291842349
 21
7678.157266128009
 31
0.0
  0
CIRCLE
  5
15B
330
21
100
AcDbEntity
  8
1
  6
Continuous
 62
     7
100
AcDbCircle
 10
6175.846168930304
 20
8139.843376469931
 30
0.0
 40
12.5
  0
CIRCLE
  5
15C
330
21
100
AcDbEntity
  8
1
  6
Continuous
 62
     7
100
AcDbCircle
 10
6175.846168930304
 20
8139.843376469931
 30
0.0
 40
10.75
  0
LINE
  5
15D
330
21
100
AcDbEntity
  8
1
  6
Continuous
 62
     7
100
AcDbLine
 10
5675.899433089552
 20
7144.121049540908
 30
0.0
 11
6675.782095189072
 21
7144.121049540908
 31
0.0
  0
ARC
  5
15E
330
21
100
AcDbEntity
  8
1
  6
Continuous
 62
     7
100
AcDbCircle
 10
5745.90199938004
 20
7162.215989883057
 30
0.0
 40
70.0
100
AcDbArc
 50
120.1557138756405
 51
179.9918763313484
  0
ARC
  5
15F
330
21
100
AcDbEntity
  8
1
  6
Continuous
 62
     7
100
AcDbCircle
 10
6605.782095189072
 20
7162.211226209278
 30
0.0
 40
70.0
100
AcDbArc
 50
0.0
 51
59.84365129537847
  0
LINE
  5
160
330
21
100
AcDbEntity
  8
1
  6
Continuous
 62
     7
100
AcDbLine
 10
8575.99080633607
 20
5511.466507333556
 30
0.0
 11
8575.99080633607
 21
7636.634311560512
 31
0.0
  0
LINE
  5
161
330
21
100
AcDbEntity
  8
1
  6
Continuous
 62
     7
100
AcDbLine
 10
7575.88028651798
 20
5511.476432267093
 30
0.0
 11
7576.110711230644
 21
7636.64900016783
 31
0.0
  0
LINE
  5
162
330
21
100
AcDbEntity
  8
1
  6
Continuous
 62
     7
100
AcDbLine
 10
7576.112386773132
 20
7575.466461821164
 30
0.0
 11
8575.99080633607
 21
7575.466461821164
 31
0.0
  0
LINE
  5
163
330
21
100
AcDbEntity
  8
1
  6
Continuous
 62
     7
100
AcDbLine
 10
7625.990806336069
 20
5238.466507333555
 30
0.0
 11
8075.99080633607
 21
5238.466507333555
 31
0.0
  0
LINE
  5
164
330
21
100
AcDbEntity
  8
1
  6
Continuous
 62
     7
100
AcDbLine
 10
7575.889359335814
 20
5575.466507333556
 30
0.0
 11
8575.99080633607
 21
5575.466507333556
 31
0.0
  0
LINE
  5
165
330
21
100
AcDbEntity
  8
1
  6
Continuous
 62
     7
100
AcDbLine
 10
8525.99080633607
 20
5238.466507333555
 30
0.0
 11
8525.99080633607
 21
5444.384468008561
 31
0.0
  0
LINE
  5
166
330
21
100
AcDbEntity
  8
1
  6
Continuous
 62
     7
100
AcDbLine
 10
7625.990806336069
 20
5238.466507333555
 30
0.0
 11
7625.990806336069
 21
5444.351616243112
 31
0.0
  0
LINE
  5
167
330
21
100
AcDbEntity
  8
1
  6
Continuous
 62
     7
100
AcDbLine
 10
7575.885184619527
 20
5546.022467633181
 30
0.0
 11
8575.99080633607
 21
5546.022467633181
 31
0.0
  0
LWPOLYLINE
  5
168
330
21
100
AcDbEntity
  8
1
  6
Continuous
 62
     7
100
AcDbPolyline
 90
        4
 70
     1
 43
0.0
 10
7866.297965345509
 20
5318.03282245186
 10
7962.766543135995
 20
5318.03282245186
 10
7962.766543135995
 20
5264.345481473764
 10
7866.297965345509
 20
5264.345481473764
  0
LWPOLYLINE
  5
169
330
21
100
AcDbEntity
  8
1
  6
Continuous
 62
     7
100
AcDbPolyline
 90
        4
 70
     1
 43
0.0
 10
8189.934038949962
 20
5319.381306091878
 10
8286.402616740451
 20
5319.381306091878
 10
8286.402616740451
 20
5265.693965113783
 10
8189.934038949962
 20
5265.693965113783
  0
LINE
  5
16A
330
21
100
AcDbEntity
  8
1
  6
Continuous
 62
     7
100
AcDbLine
 10
8075.99080633607
 20
5238.466507333555
 30
0.0
 11
8525.99080633607
 21
5238.466507333555
 31
0.0
  0
CIRCLE
  5
16B
330
21
100
AcDbEntity
  8
1
  6
Continuous
 62
     7
100
AcDbCircle
 10
7924.830806336069
 20
5735.466507333555
 30
0.0
 40
25.4
  0
CIRCLE
  5
16C
330
21
100
AcDbEntity
  8
1
  6
Continuous
 62
     7
100
AcDbCircle
 10
7924.830806336068
 20
6460.466507333555
 30
0.0
 40
25.4
  0
CIRCLE
  5
16D
330
21
100
AcDbEntity
  8
1
  6
Continuous
 62
     7
100
AcDbCircle
 10
7924.830806336068
 20
6860.466507333555
 30
0.0
 40
25.4
  0
CIRCLE
  5
16E
330
21
100
AcDbEntity
  8
1
  6
Continuous
 62
     7
100
AcDbCircle
 10
7924.830806336068
 20
7060.466507333555
 30
0.0
 40
25.4
  0
CIRCLE
  5
16F
330
21
100
AcDbEntity
  8
1
  6
Continuous
 62
     7
100
AcDbCircle
 10
7924.830806336068
 20
7060.466507333555
 30
0.0
 40
15.0
  0
CIRCLE
  5
170
330
21
100
AcDbEntity
  8
1
  6
Continuous
 62
     7
100
AcDbCircle
 10
7924.830806336068
 20
6860.466507333555
 30
0.0
 40
15.0
  0
CIRCLE
  5
171
330
21
100
AcDbEntity
  8
1
  6
Continuous
 62
     7
100
AcDbCircle
 10
7924.830806336069
 20
5735.466507333555
 30
0.0
 40
15.0
  0
CIRCLE
  5
172
330
21
100
AcDbEntity
  8
1
  6
Continuous
 62
     7
100
AcDbCircle
 10
7871.792614293838
 20
7260.466507333555
 30
0.0
 40
19.05
  0
CIRCLE
  5
173
330
21
100
AcDbEntity
  8
1
  6
Continuous
 62
     7
100
AcDbCircle
 10
7869.341752858921
 20
5610.466507333555
 30
0.0
 40
19.05
  0
ARC
  5
174
330
21
100
AcDbEntity
  8
1
  6
Continuous
 62
     7
100
AcDbCircle
 10
7927.281667770987
 20
7260.466507333555
 30
0.0
 40
19.05
100
AcDbArc
 50
270.0
 51
90.0
  0
LINE
  5
175
330
21
100
AcDbEntity
  8
1
  6
Continuous
 62
     7
100
AcDbLine
 10
7871.792614293838
 20
7279.516507333555
 30
0.0
 11
7927.281667770987
 21
7279.516507333555
 31
0.0
  0
LINE
  5
176
330
21
100
AcDbEntity
  8
1
  6
Continuous
 62
     7
100
AcDbLine
 10
7871.792614293838
 20
7241.416507333553
 30
0.0
 11
7927.281667770987
 21
7241.416507333553
 31
0.0
  0
ARC
  5
177
330
21
100
AcDbEntity
  8
1
  6
Continuous
 62
     7
100
AcDbCircle
 10
7924.830806336069
 20
5610.466507333555
 30
0.0
 40
19.05
100
AcDbArc
 50
270.0
 51
90.0
  0
LINE
  5
178
330
21
100
AcDbEntity
  8
1
  6
Continuous
 62
     7
100
AcDbLine
 10
7869.341752858921
 20
5629.516507333555
 30
0.0
 11
7924.830806336069
 21
5629.516507333555
 31
0.0
  0
LINE
  5
179
330
21
100
AcDbEntity
  8
1
  6
Continuous
 62
     7
100
AcDbLine
 10
7869.341752858921
 20
5591.416507333555
 30
0.0
 11
7924.830806336069
 21
5591.416507333555
 31
0.0
  0
ARC
  5
17A
330
21
100
AcDbEntity
  8
1
  6
Continuous
 62
     7
100
AcDbCircle
 10
7873.148402641016
 20
7260.329796870147
 30
0.0
 40
20.0
100
AcDbArc
 50
288.9743065408752
 51
73.60437344805657
  0
ARC
  5
17B
330
21
100
AcDbEntity
  8
1
  6
Continuous
 62
     7
100
AcDbCircle
 10
7869.82796282698
 20
5610.576937641969
 30
0.0
 40
20.0
100
AcDbArc
 50
286.6602720919161
 51
71.25862108335306
  0
LWPOLYLINE
  5
17C
330
21
100
AcDbEntity
  8
1
  6
Continuous
 62
     7
100
AcDbPolyline
 90
        4
 70
     1
 43
0.0
 10
7989.05284406552
 20
7276.760684650449
 10
7996.918998632299
 20
7276.760684650449
 10
7996.918998632299
 20
7244.17233001666
 10
7989.05284406552
 20
7244.17233001666
  0
LWPOLYLINE
  5
17D
330
21
100
AcDbEntity
  8
1
  6
Continuous
 62
     7
100
AcDbPolyline
 90
        4
 70
     1
 43
0.0
 10
7986.438843560797
 20
7076.93662162755
 10
7994.304998127574
 20
7076.93662162755
 10
7994.304998127574
 20
7044.348266993761
 10
7986.438843560797
 20
7044.348266993761
  0
LWPOLYLINE
  5
17E
330
21
100
AcDbEntity
  8
1
  6
Continuous
 62
     7
100
AcDbPolyline
 90
        4
 70
     1
 43
0.0
 10
7986.601982630604
 20
6876.760684650449
 10
7994.46813719738
 20
6876.760684650449
 10
7994.46813719738
 20
6844.17233001666
 10
7986.601982630604
 20
6844.17233001666
  0
LWPOLYLINE
  5
17F
330
21
100
AcDbEntity
  8
1
  6
Continuous
 62
     7
100
AcDbPolyline
 90
        4
 70
     1
 43
0.0
 10
7986.601982630602
 20
6476.760684650447
 10
7994.46813719738
 20
6476.760684650447
 10
7994.46813719738
 20
6444.17233001666
 10
7986.601982630602
 20
6444.17233001666
  0
LWPOLYLINE
  5
180
330
21
100
AcDbEntity
  8
1
  6
Continuous
 62
     7
100
AcDbPolyline
 90
        4
 70
     1
 43
0.0
 10
7986.601982630604
 20
5751.760684650449
 10
7994.468137197383
 20
5751.760684650449
 10
7994.468137197383
 20
5719.172330016661
 10
7986.601982630604
 20
5719.172330016661
  0
LWPOLYLINE
  5
181
330
21
100
AcDbEntity
  8
1
  6
Continuous
 62
     7
100
AcDbPolyline
 90
        4
 70
     1
 43
0.0
 10
7986.601982630604
 20
5626.760684650449
 10
7994.46813719738
 20
5626.760684650449
 10
7994.46813719738
 20
5594.172330016659
 10
7986.601982630604
 20
5594.172330016659
  0
LWPOLYLINE
  5
182
330
21
100
AcDbEntity
  8
1
  6
Continuous
 62
     7
100
AcDbPolyline
 90
        4
 70
     1
 43
0.0
 10
8157.551376558233
 20
7176.760684650448
 10
8165.417531125008
 20
7176.760684650448
 10
8165.417531125008
 20
7144.172330016658
 10
8157.551376558233
 20
7144.172330016658
  0
LWPOLYLINE
  5
183
330
21
100
AcDbEntity
  8
1
  6
Continuous
 62
     7
100
AcDbPolyline
 90
        4
 70
     1
 43
0.0
 10
8157.551376558233
 20
6976.760684650447
 10
8165.41753112501
 20
6976.760684650447
 10
8165.41753112501
 20
6944.172330016659
 10
8157.551376558233
 20
6944.172330016659
  0
LWPOLYLINE
  5
184
330
21
100
AcDbEntity
  8
1
  6
Continuous
 62
     7
100
AcDbPolyline
 90
        4
 70
     1
 43
0.0
 10
8157.551376558233
 20
6776.760684650447
 10
8165.417531125008
 20
6776.760684650447
 10
8165.417531125008
 20
6744.172330016659
 10
8157.551376558233
 20
6744.172330016659
  0
LWPOLYLINE
  5
185
330
21
100
AcDbEntity
  8
1
  6
Continuous
 62
     7
100
AcDbPolyline
 90
        4
 70
     1
 43
0.0
 10
8157.551376558233
 20
6376.760684650448
 10
8165.41753112501
 20
6376.760684650448
 10
8165.41753112501
 20
6344.172330016658
 10
8157.551376558233
 20
6344.172330016658
  0
CIRCLE
  5
186
330
21
100
AcDbEntity
  8
1
  6
Continuous
 62
     7
100
AcDbCircle
 10
8227.150806336068
 20
7160.466507333556
 30
0.0
 40
25.4
  0
CIRCLE
  5
187
330
21
100
AcDbEntity
  8
1
  6
Continuous
 62
     7
100
AcDbCircle
 10
8227.150806336068
 20
6360.466507333555
 30
0.0
 40
25.4
  0
CIRCLE
  5
188
330
21
100
AcDbEntity
  8
1
  6
Continuous
 62
     7
100
AcDbCircle
 10
8227.150806336068
 20
6760.466507333555
 30
0.0
 40
25.4
  0
CIRCLE
  5
189
330
21
100
AcDbEntity
  8
1
  6
Continuous
 62
     7
100
AcDbCircle
 10
8227.150806336068
 20
6760.466507333555
 30
0.0
 40
15.0
  0
CIRCLE
  5
18A
330
21
100
AcDbEntity
  8
1
  6
Continuous
 62
     7
100
AcDbCircle
 10
8227.150806336068
 20
6960.466507333555
 30
0.0
 40
25.4
  0
CIRCLE
  5
18B
330
21
100
AcDbEntity
  8
1
  6
Continuous
 62
     7
100
AcDbCircle
 10
8227.150806336068
 20
6960.466507333555
 30
0.0
 40
15.0
  0
CIRCLE
  5
18C
330
21
100
AcDbEntity
  8
1
  6
Continuous
 62
     7
100
AcDbCircle
 10
8246.284933738547
 20
5735.077506925182
 30
0.0
 40
19.05
  0
CIRCLE
  5
18D
330
21
100
AcDbEntity
  8
1
  6
Continuous
 62
     7
100
AcDbCircle
 10
8245.833329295917
 20
5609.625902482553
 30
0.0
 40
19.05
  0
ARC
  5
18E
330
21
100
AcDbEntity
  8
1
  6
Continuous
 62
     7
100
AcDbCircle
 10
8227.234933738548
 20
5735.077506925182
 30
0.0
 40
19.05
100
AcDbArc
 50
90.0
 51
270.0
  0
ARC
  5
18F
330
21
100
AcDbEntity
  8
1
  6
Continuous
 62
     7
100
AcDbCircle
 10
8226.783329295917
 20
5609.625902482553
 30
0.0
 40
19.05
100
AcDbArc
 50
90.0
 51
270.0
  0
LINE
  5
190
330
21
100
AcDbEntity
  8
1
  6
Continuous
 62
     7
100
AcDbLine
 10
8227.234933738548
 20
5754.127506925182
 30
0.0
 11
8246.284933738547
 21
5754.127506925182
 31
0.0
  0
LINE
  5
191
330
21
100
AcDbEntity
  8
1
  6
Continuous
 62
     7
100
AcDbLine
 10
8227.234933738548
 20
5716.027506925183
 30
0.0
 11
8246.284933738547
 21
5716.027506925183
 31
0.0
  0
LINE
  5
192
330
21
100
AcDbEntity
  8
1
  6
Continuous
 62
     7
100
AcDbLine
 10
8226.783329295917
 20
5628.675902482553
 30
0.0
 11
8245.833329295917
 21
5628.675902482553
 31
0.0
  0
LINE
  5
193
330
21
100
AcDbEntity
  8
1
  6
Continuous
 62
     7
100
AcDbLine
 10
8226.783329295917
 20
5590.575902482552
 30
0.0
 11
8245.833329295917
 21
5590.575902482552
 31
0.0
  0
ARC
  5
194
330
21
100
AcDbEntity
  8
1
  6
Continuous
 62
     7
100
AcDbCircle
 10
8242.141724020083
 20
5609.605535052114
 30
0.0
 40
20.0
100
AcDbArc
 50
107.5377972830529
 51
252.0789889389693
  0
ARC
  5
195
330
21
100
AcDbEntity
  8
1
  6
Continuous
 62
     7
100
AcDbCircle
 10
8241.5094778004
 20
5734.699965660381
 30
0.0
 40
20.0
100
AcDbArc
 50
103.7415620604389
 51
249.006797580811
  0
LINE
  5
196
330
21
100
AcDbEntity
  8
1
  6
Continuous
 62
     7
100
AcDbLine
 10
8063.731150460874
 20
7843.466507333555
 30
0.0
 11
8088.731150460874
 21
7843.466507333555
 31
0.0
  0
LINE
  5
197
330
21
100
AcDbEntity
  8
1
  6
Continuous
 62
     7
100
AcDbLine
 10
8088.731150460874
 20
7822.338928920578
 30
0.0
 11
8088.731150460874
 21
7843.466507333555
 31
0.0
  0
LINE
  5
198
330
21
100
AcDbEntity
  8
1
  6
Continuous
 62
     7
100
AcDbLine
 10
8063.731150460874
 20
7822.338928920578
 30
0.0
 11
8063.731150460874
 21
7843.466507333555
 31
0.0
  0
LINE
  5
199
330
21
100
AcDbEntity
  8
1
  6
Continuous
 62
     7
100
AcDbLine
 10
8063.731150460874
 20
7840.254510435696
 30
0.0
 11
8088.731150460874
 21
7840.254510435696
 31
0.0
  0
LINE
  5
19A
330
21
100
AcDbEntity
  8
1
  6
Continuous
 62
     7
100
AcDbLine
 10
8063.731150460874
 20
7834.374244255627
 30
0.0
 11
8088.731150460874
 21
7834.374244255627
 31
0.0
  0
LINE
  5
19B
330
21
100
AcDbEntity
  8
1
  6
Continuous
 62
     7
100
AcDbLine
 10
7653.666885478185
 20
7720.5052983678
 30
0.0
 11
8498.426432107306
 21
7720.5052983678
 31
0.0
  0
LINE
  5
19C
330
21
100
AcDbEntity
  8
1
  6
Continuous
 62
     7
100
AcDbLine
 10
7645.880285814377
 20
5441.466507333555
 30
0.0
 11
8505.99080633607
 21
5441.466507333555
 31
0.0
  0
ARC
  5
19D
330
21
100
AcDbEntity
  8
1
  6
Continuous
 62
     7
100
AcDbCircle
 10
7645.880285814377
 20
5511.466507333556
 30
0.0
 40
70.0
100
AcDbArc
 50
179.9918763313478
 51
270.0000000000001
  0
ARC
  5
19E
330
21
100
AcDbEntity
  8
1
  6
Continuous
 62
     7
100
AcDbCircle
 10
8505.99080633607
 20
5511.466507333556
 30
0.0
 40
70.0
100
AcDbArc
 50
270.0000000000001
 51
0.0
  0
ARC
  5
19F
330
21
100
AcDbEntity
  8
1
  6
Continuous
 62
     7
100
AcDbCircle
 10
8076.046658792746
 20
6896.620064546643
 30
0.0
 40
925.8463973110236
100
AcDbArc
 50
59.84365129537845
 51
120.1557138756404
  0
LINE
  5
1A0
330
21
100
AcDbEntity
  8
1
  6
Continuous
 62
     7
100
AcDbLine
 10
7576.103564492452
 20
7586.24345676818
 30
0.0
 11
8575.99080633607
 21
7586.24345676818
 31
0.0
  0
LINE
  5
1A1
330
21
100
AcDbEntity
  8
1
  6
Continuous
 62
     7
100
AcDbLine
 10
7575.887825849739
 20
5581.01055839889
 30
0.0
 11
8575.99080633607
 21
5581.01055839889
 31
0.0
  0
LINE
  5
1A2
330
21
100
AcDbEntity
  8
1
  6
Continuous
 62
     7
100
AcDbLine
 10
7576.108144236549
 20
7618.544134892141
 30
0.0
 11
8575.99080633607
 21
7618.544134892141
 31
0.0
  0
ARC
  5
1A3
330
21
100
AcDbEntity
  8
1
  6
Continuous
 62
     7
100
AcDbCircle
 10
7646.110710527037
 20
7636.639075234291
 30
0.0
 40
70.0
100
AcDbArc
 50
120.1557138756405
 51
179.9918763313484
  0
ARC
  5
1A4
330
21
100
AcDbEntity
  8
1
  6
Continuous
 62
     7
100
AcDbCircle
 10
8505.99080633607
 20
7636.634311560512
 30
0.0
 40
70.0
100
AcDbArc
 50
0.0
 51
59.84365129537847
  0
CIRCLE
  5
1A5
330
21
100
AcDbEntity
  8
1
  6
Continuous
 62
     7
100
AcDbCircle
 10
8076.051787915082
 20
8612.714857035994
 30
0.0
 40
500.0
  0
LINE
  5
1A6
330
21
100
AcDbEntity
  8
1
  6
Continuous
 62
     7
100
AcDbLine
 10
7897.735355971899
 20
8132.440859682999
 30
0.0
 11
7846.373920026454
 21
8008.443384440544
 31
0.0
  0
LINE
  5
1A7
330
21
100
AcDbEntity
  8
1
  6
Continuous
 62
     7
100
AcDbLine
 10
7862.53554578322
 20
8147.021098456109
 30
0.0
 11
7811.174109837775
 21
8023.023623213655
 31
0.0
  0
LINE
  5
1A8
330
21
100
AcDbEntity
  8
1
  6
Continuous
 62
     7
100
AcDbLine
 10
7858.79817982293
 20
8151.189213937888
 30
0.0
 11
7903.144397383471
 21
8132.820409184365
 31
0.0
  0
LINE
  5
1A9
330
21
100
AcDbEntity
  8
1
  6
Continuous
 62
     7
100
AcDbLine
 10
7907.011446700572
 20
8142.156292092074
 30
0.0
 11
7903.144397383471
 21
8132.820409184365
 31
0.0
  0
LINE
  5
1AA
330
21
100
AcDbEntity
  8
1
  6
Continuous
 62
     7
100
AcDbLine
 10
7862.668831544961
 20
8160.533793820443
 30
0.0
 11
7858.79817982293
 21
8151.189213937888
 31
0.0
  0
LINE
  5
1AB
330
21
100
AcDbEntity
  8
1
  6
Continuous
 62
     7
100
AcDbLine
 10
7859.059754950907
 20
8148.460818158826
 30
0.0
 11
7900.634333913913
 21
8131.240063702398
 31
0.0
  0
LINE
  5
1AC
330
21
100
AcDbEntity
  8
1
  6
Continuous
 62
     7
100
AcDbLine
 10
7859.059754950907
 20
8148.460818158826
 30
0.0
 11
7858.79817982293
 21
8151.189213937888
 31
0.0
  0
LINE
  5
1AD
330
21
100
AcDbEntity
  8
1
  6
Continuous
 62
     7
100
AcDbLine
 10
7900.634333913913
 20
8131.240063702398
 30
0.0
 11
7903.144397383471
 21
8132.820409184365
 31
0.0
  0
LINE
  5
1AE
330
21
100
AcDbEntity
  8
1
  6
Continuous
 62
     7
100
AcDbLine
 10
7811.174109837775
 20
8023.023623213655
 30
0.0
 11
7846.373920026454
 21
8008.443384440544
 31
0.0
  0
LINE
  5
1AF
330
21
100
AcDbEntity
  8
1
  6
Continuous
 62
     7
100
AcDbLine
 10
7815.385337451968
 20
8033.190426034082
 30
0.0
 11
7850.585147640649
 21
8018.610187260973
 31
0.0
  0
CIRCLE
  5
1B0
330
21
100
AcDbEntity
  8
1
  6
Continuous
 62
     7
100
AcDbCircle
 10
7966.193665327089
 20
8120.381350045812
 30
0.0
 40
3.776415005640336
  0
CIRCLE
  5
1B1
330
21
100
AcDbEntity
  8
1
  6
Continuous
 62
     7
100
AcDbCircle
 10
8185.510866359448
 20
8120.950461852904
 30
0.0
 40
3.776415005640336
  0
LINE
  5
1B2
330
21
100
AcDbEntity
  8
1
  6
Continuous
 62
     7
100
AcDbLine
 10
8269.274439781915
 20
8096.454061379658
 30
0.0
 11
8304.474249970594
 21
8111.03430015277
 31
0.0
  0
LINE
  5
1B3
330
21
100
AcDbEntity
  8
1
  6
Continuous
 62
     7
100
AcDbLine
 10
8268.148508817041
 20
8099.937174196139
 30
0.0
 11
8303.348319005721
 21
8114.51741296925
 31
0.0
  0
LINE
  5
1B4
330
21
100
AcDbEntity
  8
1
  6
Continuous
 62
     7
100
AcDbLine
 10
8289.550444301138
 20
8147.06355420218
 30
0.0
 11
8304.474249970594
 21
8111.03430015277
 31
0.0
  0
LINE
  5
1B5
330
21
100
AcDbEntity
  8
1
  6
Continuous
 62
     7
100
AcDbLine
 10
8254.35063411246
 20
8132.483315429071
 30
0.0
 11
8269.274439781915
 21
8096.454061379658
 31
0.0
  0
LINE
  5
1B6
330
21
100
AcDbEntity
  8
1
  6
Continuous
 62
     7
100
AcDbLine
 10
8248.451693266583
 20
8132.659941940548
 30
0.0
 11
8292.797910827127
 21
8151.028746694072
 31
0.0
  0
LINE
  5
1B7
330
21
100
AcDbEntity
  8
1
  6
Continuous
 62
     7
100
AcDbLine
 10
8288.954528310341
 20
8160.307492891478
 30
0.0
 11
8292.797910827127
 21
8151.028746694072
 31
0.0
  0
LINE
  5
1B8
330
21
100
AcDbEntity
  8
1
  6
Continuous
 62
     7
100
AcDbLine
 10
8244.592410061148
 20
8141.977075796146
 30
0.0
 11
8248.451693266583
 21
8132.659941940548
 31
0.0
  0
LINE
  5
1B9
330
21
100
AcDbEntity
  8
1
  6
Continuous
 62
     7
100
AcDbLine
 10
8250.565921970501
 20
8130.915636330195
 30
0.0
 11
8292.140500933511
 21
8148.136390786623
 31
0.0
  0
LINE
  5
1BA
330
21
100
AcDbEntity
  8
1
  6
Continuous
 62
     7
100
AcDbLine
 10
8250.565921970501
 20
8130.915636330195
 30
0.0
 11
8248.451693266583
 21
8132.659941940548
 31
0.0
  0
LINE
  5
1BB
330
21
100
AcDbEntity
  8
1
  6
Continuous
 62
     7
100
AcDbLine
 10
8292.140500933511
 20
8148.136390786623
 30
0.0
 11
8292.797910827127
 21
8151.028746694072
 31
0.0
  0
CIRCLE
  5
1BC
330
21
100
AcDbEntity
  8
1
  6
Continuous
 62
     7
100
AcDbCircle
 10
8076.051787915082
 20
8612.714857035994
 30
0.0
 40
12.5
  0
CIRCLE
  5
1BD
330
21
100
AcDbEntity
  8
1
  6
Continuous
 62
     7
100
AcDbCircle
 10
8076.051787915082
 20
8612.714857035994
 30
0.0
 40
10.75
  0
CIRCLE
  5
1BF
102
{ACAD_REACTORS
330
1BE
102
}
330
21
100
AcDbEntity
  8
1
  6
Continuous
 62
     7
100
AcDbCircle
 10
4273.214665346572
 20
8000.13181731532
 30
0.0
 40
395.0
  0
LINE
  5
1C0
102
{ACAD_REACTORS
330
1BE
102
}
330
21
100
AcDbEntity
  8
1
  6
Continuous
 62
     7
100
AcDbLine
 10
4135.52695290921
 20
7617.944225615125
 30
0.0
 11
4084.165516963764
 21
7493.94675037267
 31
0.0
  0
LINE
  5
1C1
102
{ACAD_REACTORS
330
1BE
102
}
330
21
100
AcDbEntity
  8
1
  6
Continuous
 62
     7
100
AcDbLine
 10
4100.327142720531
 20
7632.524464388234
 30
0.0
 11
4048.965706775084
 21
7508.52698914578
 31
0.0
  0
LINE
  5
1C2
102
{ACAD_REACTORS
330
1BE
102
}
330
21
100
AcDbEntity
  8
1
  6
Continuous
 62
     7
100
AcDbLine
 10
4096.589776760241
 20
7636.692579870014
 30
0.0
 11
4140.935994320781
 21
7618.32377511649
 31
0.0
  0
LINE
  5
1C3
102
{ACAD_REACTORS
330
1BE
102
}
330
21
100
AcDbEntity
  8
1
  6
Continuous
 62
     7
100
AcDbLine
 10
4144.414330173679
 20
7626.721220707041
 30
0.0
 11
4140.935994320781
 21
7618.32377511649
 31
0.0
  0
LINE
  5
1C4
102
{ACAD_REACTORS
330
1BE
102
}
330
21
100
AcDbEntity
  8
1
  6
Continuous
 62
     7
100
AcDbLine
 10
4100.07267579405
 20
7645.101041953812
 30
0.0
 11
4096.589776760241
 21
7636.692579870014
 31
0.0
  0
LINE
  5
1C5
102
{ACAD_REACTORS
330
1BE
102
}
330
21
100
AcDbEntity
  8
1
  6
Continuous
 62
     7
100
AcDbLine
 10
4096.851351888218
 20
7633.964184090949
 30
0.0
 11
4138.425930851226
 21
7616.743429634521
 31
0.0
  0
LINE
  5
1C6
102
{ACAD_REACTORS
330
1BE
102
}
330
21
100
AcDbEntity
  8
1
  6
Continuous
 62
     7
100
AcDbLine
 10
4096.851351888218
 20
7633.964184090949
 30
0.0
 11
4096.589776760241
 21
7636.692579870014
 31
0.0
  0
LINE
  5
1C7
102
{ACAD_REACTORS
330
1BE
102
}
330
21
100
AcDbEntity
  8
1
  6
Continuous
 62
     7
100
AcDbLine
 10
4138.425930851226
 20
7616.743429634521
 30
0.0
 11
4140.935994320781
 21
7618.32377511649
 31
0.0
  0
LINE
  5
1C8
102
{ACAD_REACTORS
330
1BE
102
}
330
21
100
AcDbEntity
  8
1
  6
Continuous
 62
     7
100
AcDbLine
 10
4048.965706775084
 20
7508.52698914578
 30
0.0
 11
4084.165516963764
 21
7493.94675037267
 31
0.0
  0
LINE
  5
1C9
102
{ACAD_REACTORS
330
1BE
102
}
330
21
100
AcDbEntity
  8
1
  6
Continuous
 62
     7
100
AcDbLine
 10
4053.17693438928
 20
7518.693791966208
 30
0.0
 11
4088.376744577959
 21
7504.113553193099
 31
0.0
  0
CIRCLE
  5
1CA
102
{ACAD_REACTORS
330
1BE
102
}
330
21
100
AcDbEntity
  8
1
  6
Continuous
 62
     7
100
AcDbCircle
 10
4187.089475639733
 20
7610.426936902957
 30
0.0
 40
3.776415005640336
  0
CIRCLE
  5
1CB
102
{ACAD_REACTORS
330
1BE
102
}
330
21
100
AcDbEntity
  8
1
  6
Continuous
 62
     7
100
AcDbCircle
 10
4359.404012441862
 20
7610.85353862802
 30
0.0
 40
3.776415005640336
  0
LINE
  5
1CC
102
{ACAD_REACTORS
330
1BE
102
}
330
21
100
AcDbEntity
  8
1
  6
Continuous
 62
     7
100
AcDbLine
 10
4425.908887654711
 20
7581.715305961248
 30
0.0
 11
4461.10869784339
 21
7596.295544734357
 31
0.0
  0
LINE
  5
1CD
102
{ACAD_REACTORS
330
1BE
102
}
330
21
100
AcDbEntity
  8
1
  6
Continuous
 62
     7
100
AcDbLine
 10
4424.782956689838
 20
7585.198418777728
 30
0.0
 11
4459.982766878519
 21
7599.778657550839
 31
0.0
  0
LINE
  5
1CE
102
{ACAD_REACTORS
330
1BE
102
}
330
21
100
AcDbEntity
  8
1
  6
Continuous
 62
     7
100
AcDbLine
 10
4446.184892173937
 20
7632.324798783769
 30
0.0
 11
4461.10869784339
 21
7596.295544734357
 31
0.0
  0
LINE
  5
1CF
102
{ACAD_REACTORS
330
1BE
102
}
330
21
100
AcDbEntity
  8
1
  6
Continuous
 62
     7
100
AcDbLine
 10
4410.985081985258
 20
7617.74456001066
 30
0.0
 11
4425.908887654711
 21
7581.715305961248
 31
0.0
  0
LINE
  5
1D0
102
{ACAD_REACTORS
330
1BE
102
}
330
21
100
AcDbEntity
  8
1
  6
Continuous
 62
     7
100
AcDbLine
 10
4405.086141139381
 20
7617.921186522138
 30
0.0
 11
4449.432358699923
 21
7636.289991275662
 31
0.0
  0
LINE
  5
1D1
102
{ACAD_REACTORS
330
1BE
102
}
330
21
100
AcDbEntity
  8
1
  6
Continuous
 62
     7
100
AcDbLine
 10
4445.954022847026
 20
7644.687436866215
 30
0.0
 11
4449.432358699923
 21
7636.289991275662
 31
0.0
  0
LINE
  5
1D2
102
{ACAD_REACTORS
330
1BE
102
}
330
21
100
AcDbEntity
  8
1
  6
Continuous
 62
     7
100
AcDbLine
 10
4401.603242105572
 20
7626.329648605937
 30
0.0
 11
4405.086141139381
 21
7617.921186522138
 31
0.0
  0
LINE
  5
1D3
102
{ACAD_REACTORS
330
1BE
102
}
330
21
100
AcDbEntity
  8
1
  6
Continuous
 62
     7
100
AcDbLine
 10
4407.200369843301
 20
7616.176880911783
 30
0.0
 11
4448.774948806309
 21
7633.397635368211
 31
0.0
  0
LINE
  5
1D4
102
{ACAD_REACTORS
330
1BE
102
}
330
21
100
AcDbEntity
  8
1
  6
Continuous
 62
     7
100
AcDbLine
 10
4407.200369843301
 20
7616.176880911783
 30
0.0
 11
4405.086141139381
 21
7617.921186522138
 31
0.0
  0
LINE
  5
1D5
102
{ACAD_REACTORS
330
1BE
102
}
330
21
100
AcDbEntity
  8
1
  6
Continuous
 62
     7
100
AcDbLine
 10
4448.774948806309
 20
7633.397635368211
 30
0.0
 11
4449.432358699923
 21
7636.289991275662
 31
0.0
  0
CIRCLE
  5
1D6
102
{ACAD_REACTORS
330
1BE
102
}
330
21
100
AcDbEntity
  8
1
  6
Continuous
 62
     7
100
AcDbCircle
 10
4273.214665346572
 20
8000.13181731532
 30
0.0
 40
12.5
  0
CIRCLE
  5
1D7
102
{ACAD_REACTORS
330
1BE
102
}
330
21
100
AcDbEntity
  8
1
  6
Continuous
 62
     7
100
AcDbCircle
 10
4273.214665346572
 20
8000.13181731532
 30
0.0
 40
10.75
  0
TEXT
  5
1D9
330
21
100
AcDbEntity
  8
1
  6
Continuous
 62
     7
100
AcDbText
 10
1242.480217329287
 20
12019.68057091918
 30
0.0
 40
350.0
  1
SolvisStrato (ohne Isolierung)
  7
ARIAL
100
AcDbText
  0
TEXT
  5
1DB
330
21
100
AcDbEntity
  8
1
  6
Continuous
 62
     7
100
AcDbText
 10
1242.480217329287
 20
11494.68057091918
 30
0.0
 40
350.0
  1
Maßstab 1:50
  7
ARIAL
100
AcDbText
  0
TEXT
  5
1DC
330
21
100
AcDbEntity
  8
1
  6
Continuous
 62
     7
100
AcDbText
 10
2287.353727215778
 20
6792.474151634372
 30
0.0
 40
75.0
  1
SR-727
  7
ARIAL
100
AcDbText
  0
TEXT
  5
1DD
330
21
100
AcDbEntity
  8
1
  6
Continuous
 62
     7
100
AcDbText
 10
4101.58856595536
 20
7163.402674819734
 30
0.0
 40
75.0
  1
SR-917
  7
ARIAL
100
AcDbText
  0
TEXT
  5
1DE
330
21
100
AcDbEntity
  8
1
  6
Continuous
 62
     7
100
AcDbText
 10
6020.509245657338
 20
7160.055269109744
 30
0.0
 40
75.0
  1
SR-1427
  7
ARIAL
100
AcDbText
  0
TEXT
  5
1DF
330
21
100
AcDbEntity
  8
1
  6
Continuous
 62
     7
100
AcDbText
 10
7903.321063932036
 20
7633.068213866231
 30
0.0
 40
75.0
  1
SR-1817
  7
ARIAL
100
AcDbText
  0
ENDSEC
  0
SECTION
  2
OBJECTS
  0
DICTIONARY
  5
C
330
0
100
AcDbDictionary
281
     1
  3
ACAD_COLOR
350
1C
  3
ACAD_GROUP
350
D
  3
ACAD_LAYOUT
350
1A
  3
ACAD_MATERIAL
350
1B
  3
ACAD_MLINESTYLE
350
17
  3
ACAD_PLOTSETTINGS
350
19
  3
ACAD_PLOTSTYLENAME
350
E
  3
ACDBHEADERROUNDTRIPXREC
350
1E4
  3
AcDbVariableDictionary
350
1E0
  0
DICTIONARY
  5
1C
102
{ACAD_REACTORS
330
C
102
}
330
C
100
AcDbDictionary
281
     1
  0
DICTIONARY
  5
D
102
{ACAD_REACTORS
330
C
102
}
330
C
100
AcDbDictionary
281
     1
  3
*A1
350
5C
  3
*A2
350
1BE
  0
DICTIONARY
  5
1A
102
{ACAD_REACTORS
330
C
102
}
330
C
100
AcDbDictionary
281
     1
  3
Layout1
350
20
  3
Layout2
350
28
  3
Model
350
24
  0
DICTIONARY
  5
1B
102
{ACAD_REACTORS
330
C
102
}
330
C
100
AcDbDictionary
281
     1
  0
DICTIONARY
  5
17
102
{ACAD_REACTORS
330
C
102
}
330
C
100
AcDbDictionary
281
     1
  3
Standard
350
18
  0
DICTIONARY
  5
19
102
{ACAD_REACTORS
330
C
102
}
330
C
100
AcDbDictionary
281
     1
  0
ACDBDICTIONARYWDFLT
  5
E
102
{ACAD_REACTORS
330
C
102
}
330
C
100
AcDbDictionary
281
     1
  3
Normal
350
F
100
AcDbDictionaryWithDefault
340
F
  0
DICTIONARY
  5
1E4
102
{ACAD_REACTORS
330
C
102
}
330
C
100
AcDbDictionary
281
     1
  0
DICTIONARY
  5
1E0
102
{ACAD_REACTORS
330
C
102
}
330
C
100
AcDbDictionary
281
     1
  3
DIMASSOC
350
1E2
  3
HIDETEXT
350
1E1
  3
PROJECTNAME
350
1E3
  0
GROUP
  5
5C
102
{ACAD_REACTORS
330
D
102
}
330
D
100
AcDbGroup
300

 70
     0
 71
     1
340
5D
340
5E
340
5F
340
60
340
61
340
62
340
63
340
64
340
65
340
66
340
67
340
68
340
69
340
6A
340
6B
340
6C
340
6D
340
6E
340
6F
340
70
340
71
340
72
340
73
340
74
340
75
  0
GROUP
  5
1BE
102
{ACAD_REACTORS
330
D
102
}
330
D
100
AcDbGroup
300

 70
     0
 71
     1
340
1BF
340
1C0
340
1C1
340
1C2
340
1C3
340
1C4
340
1C5
340
1C6
340
1C7
340
1C8
340
1C9
340
1CA
340
1CB
340
1CC
340
1CD
340
1CE
340
1CF
340
1D0
340
1D1
340
1D2
340
1D3
340
1D4
340
1D5
340
1D6
340
1D7
  0
LAYOUT
  5
20
102
{ACAD_XDICTIONARY
360
1E5
102
}
102
{ACAD_REACTORS
330
1A
102
}
330
1A
100
AcDbPlotSettings
  1

  2

  4

  6

 40
0.0
 41
0.0
 42
0.0
 43
0.0
 44
0.0
 45
0.0
 46
0.0
 47
0.0
 48
0.0
 49
0.0
140
0.0
141
0.0
142
1.0
143
1.0
 70
   688
 72
     0
 73
     0
 74
     5
  7

 75
    16
147
1.0
148
0.0
149
0.0
100
AcDbLayout
  1
Layout1
 70
     1
 71
     1
 10
0.0
 20
0.0
 11
12.0
 21
9.0
 12
0.0
 22
0.0
 32
0.0
 14
0.0
 24
0.0
 34
0.0
 15
0.0
 25
0.0
 35
0.0
146
0.0
 13
0.0
 23
0.0
 33
0.0
 16
1.0
 26
0.0
 36
0.0
 17
0.0
 27
1.0
 37
0.0
 76
     0
330
1D
  0
LAYOUT
  5
28
102
{ACAD_XDICTIONARY
360
1E9
102
}
102
{ACAD_REACTORS
330
1A
102
}
330
1A
100
AcDbPlotSettings
  1

  2

  4

  6

 40
0.0
 41
0.0
 42
0.0
 43
0.0
 44
0.0
 45
0.0
 46
0.0
 47
0.0
 48
0.0
 49
0.0
140
0.0
141
0.0
142
1.0
143
1.0
 70
   688
 72
     0
 73
     0
 74
     5
  7

 75
    16
147
1.0
148
0.0
149
0.0
100
AcDbLayout
  1
Layout2
 70
     1
 71
     2
 10
0.0
 20
0.0
 11
12.0
 21
9.0
 12
0.0
 22
0.0
 32
0.0
 14
0.0
 24
0.0
 34
0.0
 15
0.0
 25
0.0
 35
0.0
146
0.0
 13
0.0
 23
0.0
 33
0.0
 16
1.0
 26
0.0
 36
0.0
 17
0.0
 27
1.0
 37
0.0
 76
     0
330
25
  0
LAYOUT
  5
24
102
{ACAD_XDICTIONARY
360
1E7
102
}
102
{ACAD_REACTORS
330
1A
102
}
330
1A
100
AcDbPlotSettings
  1

  2

  4

  6

 40
0.0
 41
0.0
 42
0.0
 43
0.0
 44
0.0
 45
0.0
 46
0.0
 47
0.0
 48
0.0
 49
0.0
140
0.0
141
0.0
142
1.0
143
1.0
 70
  1712
 72
     0
 73
     0
 74
     0
  7

 75
     0
147
1.0
148
0.0
149
0.0
100
AcDbLayout
  1
Model
 70
     1
 71
     0
 10
0.0
 20
0.0
 11
12.0
 21
9.0
 12
0.0
 22
0.0
 32
0.0
 14
0.0
 24
0.0
 34
0.0
 15
0.0
 25
0.0
 35
0.0
146
0.0
 13
0.0
 23
0.0
 33
0.0
 16
1.0
 26
0.0
 36
0.0
 17
0.0
 27
1.0
 37
0.0
 76
     0
330
21
  0
MLINESTYLE
  5
18
102
{ACAD_REACTORS
330
17
102
}
330
17
100
AcDbMlineStyle
  2
STANDARD
 70
     0
  3

 62
   256
 51
90.0
 52
90.0
 71
     2
 49
0.5
 62
   256
  6
BYLAYER
 49
-0.5
 62
   256
  6
BYLAYER
  0
ACDBPLACEHOLDER
  5
F
102
{ACAD_REACTORS
330
E
102
}
330
E
  0
DICTIONARYVAR
  5
1E2
102
{ACAD_REACTORS
330
1E0
102
}
330
1E0
100
DictionaryVariables
280
     0
  1
2
  0
DICTIONARYVAR
  5
1E1
102
{ACAD_REACTORS
330
1E0
102
}
330
1E0
100
DictionaryVariables
280
     0
  1
1
  0
DICTIONARYVAR
  5
1E3
102
{ACAD_REACTORS
330
1E0
102
}
330
1E0
100
DictionaryVariables
280
     0
  1

  0
DICTIONARY
  5
1E5
330
20
100
AcDbDictionary
280
     1
281
     1
  3
ACAD_XREC_ROUNDTRIP
360
1E6
  0
DICTIONARY
  5
1E9
330
28
100
AcDbDictionary
280
     1
281
     1
  3
ACAD_XREC_ROUNDTRIP
360
1EA
  0
DICTIONARY
  5
1E7
330
24
100
AcDbDictionary
280
     1
281
     1
  3
ACAD_XREC_ROUNDTRIP
360
1E8
  0
XRECORD
  5
1E6
102
{ACAD_REACTORS
330
1E5
102
}
330
1E5
100
AcDbXrecord
280
     1
102
SHADEPLOT
 70
     0
102
SHADEPLOTRESLEVEL
 70
     2
102
SHADEPLOTCUSTOMDPI
 70
   300
  0
XRECORD
  5
1EA
102
{ACAD_REACTORS
330
1E9
102
}
330
1E9
100
AcDbXrecord
280
     1
102
SHADEPLOT
 70
     0
102
SHADEPLOTRESLEVEL
 70
     2
102
SHADEPLOTCUSTOMDPI
 70
   300
  0
XRECORD
  5
1E8
102
{ACAD_REACTORS
330
1E7
102
}
330
1E7
100
AcDbXrecord
280
     1
102
SHADEPLOT
 70
     0
102
SHADEPLOTRESLEVEL
 70
     2
102
SHADEPLOTCUSTOMDPI
 70
   300
  0
ENDSEC
  0
EOF
