  0
SECTION
  2
HEADER
  9
$ACADVER
  1
AC1015
  9
$ACADMAINTVER
 70
    18
  9
$DWGCODEPAGE
  3
ANSI_1252
  9
$INSBASE
 10
0.0
 20
0.0
 30
0.0
  9
$EXTMIN
 10
124.2480217329287
 20
422.7670501732039
 30
-0.00000001
  9
$EXTMAX
 10
867.7484698705088
 20
1237.564919302013
 30
0.00000001
  9
$LIMMIN
 10
0.0
 20
0.0
  9
$LIMMAX
 10
413.4999999999999
 20
584.6666666666666
  9
$ORTHOMODE
 70
     0
  9
$REGENMODE
 70
     1
  9
$FILLMODE
 70
     1
  9
$QTEXTMODE
 70
     0
  9
$MIRRTEXT
 70
     0
  9
$LTSCALE
 40
1.0
  9
$ATTMODE
 70
     1
  9
$TEXTSIZE
 40
7.5
  9
$TRACEWID
 40
0.05
  9
$TEXTSTYLE
  7
Standard
  9
$CLAYER
  8
0
  9
$CELTYPE
  6
ByLayer
  9
$CECOLOR
 62
     7
  9
$CELTSCALE
 40
1.0
  9
$DISPSILH
 70
     0
  9
$DIMSCALE
 40
1.0
  9
$DIMASZ
 40
0.18
  9
$DIMEXO
 40
0.0625
  9
$DIMDLI
 40
0.38
  9
$DIMRND
 40
0.0
  9
$DIMDLE
 40
0.0
  9
$DIMEXE
 40
0.18
  9
$DIMTP
 40
0.0
  9
$DIMTM
 40
0.0
  9
$DIMTXT
 40
7.874015748031496
  9
$DIMCEN
 40
0.09
  9
$DIMTSZ
 40
0.0
  9
$DIMTOL
 70
     0
  9
$DIMLIM
 70
     0
  9
$DIMTIH
 70
     1
  9
$DIMTOH
 70
     1
  9
$DIMSE1
 70
     0
  9
$DIMSE2
 70
     0
  9
$DIMTAD
 70
     0
  9
$DIMZIN
 70
     0
  9
$DIMBLK
  1

  9
$DIMASO
 70
     1
  9
$DIMSHO
 70
     1
  9
$DIMPOST
  1

  9
$DIMAPOST
  1

  9
$DIMALT
 70
     0
  9
$DIMALTD
 70
     2
  9
$DIMALTF
 40
25.4
  9
$DIMLFAC
 40
1.0
  9
$DIMTOFL
 70
     0
  9
$DIMTVP
 40
0.0
  9
$DIMTIX
 70
     0
  9
$DIMSOXD
 70
     0
  9
$DIMSAH
 70
     0
  9
$DIMBLK1
  1

  9
$DIMBLK2
  1

  9
$DIMSTYLE
  2
Standard
  9
$DIMCLRD
 70
     0
  9
$DIMCLRE
 70
     0
  9
$DIMCLRT
 70
     0
  9
$DIMTFAC
 40
1.0
  9
$DIMGAP
 40
0.09
  9
$DIMJUST
 70
     0
  9
$DIMSD1
 70
     0
  9
$DIMSD2
 70
     0
  9
$DIMTOLJ
 70
     1
  9
$DIMTZIN
 70
     0
  9
$DIMALTZ
 70
     0
  9
$DIMALTTZ
 70
     0
  9
$DIMUPT
 70
     0
  9
$DIMDEC
 70
     2
  9
$DIMTDEC
 70
     4
  9
$DIMALTU
 70
     2
  9
$DIMALTTD
 70
     2
  9
$DIMTXSTY
  7
Standard
  9
$DIMAUNIT
 70
     1
  9
$DIMADEC
 70
     0
  9
$DIMALTRND
 40
0.0
  9
$DIMAZIN
 70
     0
  9
$DIMDSEP
 70
    46
  9
$DIMATFIT
 70
     3
  9
$DIMFRAC
 70
     0
  9
$DIMLDRBLK
  1

  9
$DIMLUNIT
 70
     4
  9
$DIMLWD
 70
    -2
  9
$DIMLWE
 70
    -2
  9
$DIMTMOVE
 70
     0
  9
$LUNITS
 70
     2
  9
$LUPREC
 70
     2
  9
$SKETCHINC
 40
0.1
  9
$FILLETRAD
 40
7.0
  9
$AUNITS
 70
     0
  9
$AUPREC
 70
     2
  9
$MENU
  1
.
  9
$ELEVATION
 40
0.0
  9
$PELEVATION
 40
0.0
  9
$THICKNESS
 40
0.0
  9
$LIMCHECK
 70
     0
  9
$CHAMFERA
 40
0.5
  9
$CHAMFERB
 40
0.5
  9
$CHAMFERC
 40
0.0
  9
$CHAMFERD
 40
0.0
  9
$SKPOLY
 70
     0
  9
$TDCREATE
 40
2457736.642687164
  9
$TDUCREATE
 40
2457736.601020498
  9
$TDUPDATE
 40
2457736.642687164
  9
$TDUUPDATE
 40
2457736.601020498
  9
$TDINDWG
 40
0.0000001042
  9
$TDUSRTIMER
 40
0.0000001042
  9
$USRTIMER
 70
     1
  9
$ANGBASE
 50
0.0
  9
$ANGDIR
 70
     0
  9
$PDMODE
 70
     0
  9
$PDSIZE
 40
0.0
  9
$PLINEWID
 40
0.0
  9
$SPLFRAME
 70
     0
  9
$SPLINETYPE
 70
     6
  9
$SPLINESEGS
 70
     8
  9
$HANDSEED
  5
175
  9
$SURFTAB1
 70
     6
  9
$SURFTAB2
 70
     6
  9
$SURFTYPE
 70
     6
  9
$SURFU
 70
     6
  9
$SURFV
 70
     6
  9
$UCSBASE
  2

  9
$UCSNAME
  2

  9
$UCSORG
 10
0.0
 20
0.0
 30
0.0
  9
$UCSXDIR
 10
1.0
 20
0.0
 30
0.0
  9
$UCSYDIR
 10
0.0
 20
1.0
 30
0.0
  9
$UCSORTHOREF
  2

  9
$UCSORTHOVIEW
 70
     0
  9
$UCSORGTOP
 10
0.0
 20
0.0
 30
0.0
  9
$UCSORGBOTTOM
 10
0.0
 20
0.0
 30
0.0
  9
$UCSORGLEFT
 10
0.0
 20
0.0
 30
0.0
  9
$UCSORGRIGHT
 10
0.0
 20
0.0
 30
0.0
  9
$UCSORGFRONT
 10
0.0
 20
0.0
 30
0.0
  9
$UCSORGBACK
 10
0.0
 20
0.0
 30
0.0
  9
$PUCSBASE
  2

  9
$PUCSNAME
  2

  9
$PUCSORG
 10
0.0
 20
0.0
 30
0.0
  9
$PUCSXDIR
 10
1.0
 20
0.0
 30
0.0
  9
$PUCSYDIR
 10
0.0
 20
1.0
 30
0.0
  9
$PUCSORTHOREF
  2

  9
$PUCSORTHOVIEW
 70
     0
  9
$PUCSORGTOP
 10
0.0
 20
0.0
 30
0.0
  9
$PUCSORGBOTTOM
 10
0.0
 20
0.0
 30
0.0
  9
$PUCSORGLEFT
 10
0.0
 20
0.0
 30
0.0
  9
$PUCSORGRIGHT
 10
0.0
 20
0.0
 30
0.0
  9
$PUCSORGFRONT
 10
0.0
 20
0.0
 30
0.0
  9
$PUCSORGBACK
 10
0.0
 20
0.0
 30
0.0
  9
$USERI1
 70
     0
  9
$USERI2
 70
     0
  9
$USERI3
 70
     0
  9
$USERI4
 70
     0
  9
$USERI5
 70
     0
  9
$USERR1
 40
0.0
  9
$USERR2
 40
0.0
  9
$USERR3
 40
0.0
  9
$USERR4
 40
0.0
  9
$USERR5
 40
0.0
  9
$WORLDVIEW
 70
     1
  9
$SHADEDGE
 70
     3
  9
$SHADEDIF
 70
    70
  9
$TILEMODE
 70
     1
  9
$MAXACTVP
 70
    64
  9
$PINSBASE
 10
0.0
 20
0.0
 30
0.0
  9
$PLIMCHECK
 70
     0
  9
$PEXTMIN
 10
1.000000000000000E+20
 20
1.000000000000000E+20
 30
1.000000000000000E+20
  9
$PEXTMAX
 10
-1.000000000000000E+20
 20
-1.000000000000000E+20
 30
-1.000000000000000E+20
  9
$PLIMMIN
 10
0.0
 20
0.0
  9
$PLIMMAX
 10
12.0
 20
9.0
  9
$UNITMODE
 70
     0
  9
$VISRETAIN
 70
     1
  9
$PLINEGEN
 70
     0
  9
$PSLTSCALE
 70
     1
  9
$TREEDEPTH
 70
  3020
  9
$CMLSTYLE
  2
Standard
  9
$CMLJUST
 70
     0
  9
$CMLSCALE
 40
1.0
  9
$PROXYGRAPHICS
 70
     1
  9
$MEASUREMENT
 70
     1
  9
$CELWEIGHT
370
    -1
  9
$ENDCAPS
280
     0
  9
$JOINSTYLE
280
     0
  9
$LWDISPLAY
290
     0
  9
$INSUNITS
 70
     0
  9
$HYPERLINKBASE
  1

  9
$STYLESHEET
  1

  9
$XEDIT
290
     1
  9
$CEPSNTYPE
380
     0
  9
$PSTYLEMODE
290
     1
  9
$FINGERPRINTGUID
  2
{5520317E-BBBC-4F66-9736-CCE66E9F2271}
  9
$VERSIONGUID
  2
{3052C655-94F1-48D4-8E46-4C6B183FC900}
  9
$EXTNAMES
290
     1
  9
$PSVPSCALE
 40
0.0
  9
$OLESTARTUP
290
     0
  0
ENDSEC
  0
SECTION
  2
CLASSES
  0
CLASS
  1
ACDBDICTIONARYWDFLT
  2
AcDbDictionaryWithDefault
  3
ObjectDBX Classes
 90
        0
280
     0
281
     0
  0
CLASS
  1
DICTIONARYVAR
  2
AcDbDictionaryVar
  3
ObjectDBX Classes
 90
        0
280
     0
281
     0
  0
CLASS
  1
ACDBPLACEHOLDER
  2
AcDbPlaceHolder
  3
ObjectDBX Classes
 90
        0
280
     0
281
     0
  0
CLASS
  1
LAYOUT
  2
AcDbLayout
  3
ObjectDBX Classes
 90
        0
280
     0
281
     0
  0
ENDSEC
  0
SECTION
  2
TABLES
  0
TABLE
  2
VPORT
  5
8
330
0
100
AcDbSymbolTable
 70
     1
  0
VPORT
  5
13
330
8
100
AcDbSymbolTableRecord
100
AcDbViewportTableRecord
  2
*Active
 70
     0
 10
0.0
 20
0.0
 11
1.0
 21
1.0
 12
433.8742349352544
 22
618.7824596510067
 13
0.0
 23
0.0
 14
1.0
 24
1.0
 15
0.0
 25
0.0
 16
0.0
 26
0.0
 36
1.0
 17
0.0
 27
0.0
 37
0.0
 40
1237.564919302013
 41
0.7011741011210297
 42
50.0
 43
0.0
 44
0.0
 50
0.0
 51
0.0
 71
     0
 72
   100
 73
     1
 74
     1
 75
     0
 76
     0
 77
     0
 78
     0
281
     0
 65
     1
110
0.0
120
0.0
130
0.0
111
1.0
121
0.0
131
0.0
112
0.0
122
1.0
132
0.0
 79
     0
146
0.0
  0
ENDTAB
  0
TABLE
  2
LTYPE
  5
5
330
0
100
AcDbSymbolTable
 70
    47
  0
LTYPE
  5
14
330
5
100
AcDbSymbolTableRecord
100
AcDbLinetypeTableRecord
  2
ByBlock
 70
     0
  3

 72
    65
 73
     0
 40
0.0
  0
LTYPE
  5
15
330
5
100
AcDbSymbolTableRecord
100
AcDbLinetypeTableRecord
  2
ByLayer
 70
     0
  3

 72
    65
 73
     0
 40
0.0
  0
LTYPE
  5
16
330
5
100
AcDbSymbolTableRecord
100
AcDbLinetypeTableRecord
  2
Continuous
 70
     0
  3
Solid line
 72
    65
 73
     0
 40
0.0
  0
LTYPE
  5
2A
330
5
100
AcDbSymbolTableRecord
100
AcDbLinetypeTableRecord
  2
HIDDEN
 70
     0
  3
_ _ _ _ _ _ _ _ _ _ _ _ _ _ 
 72
    65
 73
     2
 40
0.9525
 49
0.635
 74
     0
 49
-0.3175
 74
     0
  0
LTYPE
  5
2B
330
5
100
AcDbSymbolTableRecord
100
AcDbLinetypeTableRecord
  2
DASHED
 70
     0
  3
__ __ __ __ __ __ __ __ __ 
 72
    65
 73
     2
 40
1.905
 49
1.27
 74
     0
 49
-0.635
 74
     0
  0
LTYPE
  5
2C
330
5
100
AcDbSymbolTableRecord
100
AcDbLinetypeTableRecord
  2
CENTER
 70
     0
  3
____ _ ____ _ ____ _ ____ _ 
 72
    65
 73
     4
 40
5.079999999999999
 49
3.174999999999999
 74
     0
 49
-0.635
 74
     0
 49
0.635
 74
     0
 49
-0.635
 74
     0
  0
LTYPE
  5
2D
330
5
100
AcDbSymbolTableRecord
100
AcDbLinetypeTableRecord
  2
PHANTOM
 70
     0
  3
_____ _ _ _____ _ _ _____ _ _ 
 72
    65
 73
     6
 40
6.349999999999998
 49
3.174999999999999
 74
     0
 49
-0.635
 74
     0
 49
0.635
 74
     0
 49
-0.635
 74
     0
 49
0.635
 74
     0
 49
-0.635
 74
     0
  0
LTYPE
  5
2E
330
5
100
AcDbSymbolTableRecord
100
AcDbLinetypeTableRecord
  2
DOT
 70
     0
  3
...........................
 72
    65
 73
     2
 40
0.635
 49
0.0
 74
     0
 49
-0.635
 74
     0
  0
LTYPE
  5
2F
330
5
100
AcDbSymbolTableRecord
100
AcDbLinetypeTableRecord
  2
DASHDOT
 70
     0
  3
__ . __ . __ . __ . __ . __ . 
 72
    65
 73
     4
 40
2.54
 49
1.27
 74
     0
 49
-0.635
 74
     0
 49
0.0
 74
     0
 49
-0.635
 74
     0
  0
LTYPE
  5
30
330
5
100
AcDbSymbolTableRecord
100
AcDbLinetypeTableRecord
  2
DIVIDE
 70
     0
  3
__ . . __ . . __ . . __ . . 
 72
    65
 73
     6
 40
3.174999999999999
 49
1.27
 74
     0
 49
-0.635
 74
     0
 49
0.0
 74
     0
 49
-0.635
 74
     0
 49
0.0
 74
     0
 49
-0.635
 74
     0
  0
LTYPE
  5
31
330
5
100
AcDbSymbolTableRecord
100
AcDbLinetypeTableRecord
  2
BORDER
 70
     0
  3
__ __ . __ __ . __ __ . __ __ .
 72
    65
 73
     6
 40
4.444999999999999
 49
1.27
 74
     0
 49
-0.635
 74
     0
 49
1.27
 74
     0
 49
-0.635
 74
     0
 49
0.0
 74
     0
 49
-0.635
 74
     0
  0
LTYPE
  5
32
330
5
100
AcDbSymbolTableRecord
100
AcDbLinetypeTableRecord
  2
RAND
 70
     0
  3
Rand __ __ . __ __ . __ __ . __
 72
    65
 73
     6
 40
1.75
 49
0.5
 74
     0
 49
-0.25
 74
     0
 49
0.5
 74
     0
 49
-0.25
 74
     0
 49
0.0
 74
     0
 49
-0.25
 74
     0
  0
LTYPE
  5
33
330
5
100
AcDbSymbolTableRecord
100
AcDbLinetypeTableRecord
  2
RAND2
 70
     0
  3
Rand (.5x) __.__.__.__.__.__.__
 72
    65
 73
     6
 40
0.875
 49
0.25
 74
     0
 49
-0.125
 74
     0
 49
0.25
 74
     0
 49
-0.125
 74
     0
 49
0.0
 74
     0
 49
-0.125
 74
     0
  0
LTYPE
  5
34
330
5
100
AcDbSymbolTableRecord
100
AcDbLinetypeTableRecord
  2
RANDX2
 70
     0
  3
Rand (2x) ____  ____  .  ____  
 72
    65
 73
     6
 40
3.5
 49
1.0
 74
     0
 49
-0.5
 74
     0
 49
1.0
 74
     0
 49
-0.5
 74
     0
 49
0.0
 74
     0
 49
-0.5
 74
     0
  0
LTYPE
  5
35
330
5
100
AcDbSymbolTableRecord
100
AcDbLinetypeTableRecord
  2
MITTE
 70
     0
  3
Mitte ____ _ ____ _ ____ _ ____
 72
    65
 73
     4
 40
2.0
 49
1.25
 74
     0
 49
-0.25
 74
     0
 49
0.25
 74
     0
 49
-0.25
 74
     0
  0
LTYPE
  5
36
330
5
100
AcDbSymbolTableRecord
100
AcDbLinetypeTableRecord
  2
MITTE2
 70
     0
  3
Mitte (.5x) ___ _ ___ _ ___ _ _
 72
    65
 73
     4
 40
1.125
 49
0.7500000000000001
 74
     0
 49
-0.125
 74
     0
 49
0.125
 74
     0
 49
-0.125
 74
     0
  0
LTYPE
  5
37
330
5
100
AcDbSymbolTableRecord
100
AcDbLinetypeTableRecord
  2
MITTEX2
 70
     0
  3
Mitte (2x) ________  __  ______
 72
    65
 73
     4
 40
4.0
 49
2.5
 74
     0
 49
-0.5
 74
     0
 49
0.5
 74
     0
 49
-0.5
 74
     0
  0
LTYPE
  5
38
330
5
100
AcDbSymbolTableRecord
100
AcDbLinetypeTableRecord
  2
STRICHPUNKT
 70
     0
  3
Strichpunkt __ . __ . __ . __ .
 72
    65
 73
     4
 40
1.0
 49
0.5
 74
     0
 49
-0.25
 74
     0
 49
0.0
 74
     0
 49
-0.25
 74
     0
  0
LTYPE
  5
39
330
5
100
AcDbSymbolTableRecord
100
AcDbLinetypeTableRecord
  2
STRICHPUNKT2
 70
     0
  3
Strichpunkt (.5x) _._._._._._._
 72
    65
 73
     4
 40
0.5
 49
0.25
 74
     0
 49
-0.125
 74
     0
 49
0.0
 74
     0
 49
-0.125
 74
     0
  0
LTYPE
  5
3A
330
5
100
AcDbSymbolTableRecord
100
AcDbLinetypeTableRecord
  2
STRICHPUNKTX2
 70
     0
  3
Strichpunkt (2x) ____  .  ____ 
 72
    65
 73
     4
 40
2.0
 49
1.0
 74
     0
 49
-0.5
 74
     0
 49
0.0
 74
     0
 49
-0.5
 74
     0
  0
LTYPE
  5
3B
330
5
100
AcDbSymbolTableRecord
100
AcDbLinetypeTableRecord
  2
STRICHLINIE
 70
     0
  3
Strichlinie __ __ __ __ __ __ _
 72
    65
 73
     2
 40
0.75
 49
0.5
 74
     0
 49
-0.25
 74
     0
  0
LTYPE
  5
3C
330
5
100
AcDbSymbolTableRecord
100
AcDbLinetypeTableRecord
  2
STRICHLINIE2
 70
     0
  3
Strichlinie (.5x) _ _ _ _ _ _ _
 72
    65
 73
     2
 40
0.375
 49
0.25
 74
     0
 49
-0.125
 74
     0
  0
LTYPE
  5
3D
330
5
100
AcDbSymbolTableRecord
100
AcDbLinetypeTableRecord
  2
STRICHLINIEX2
 70
     0
  3
Strichlinie (2x) ____  ____  __
 72
    65
 73
     2
 40
1.5
 49
1.0
 74
     0
 49
-0.5
 74
     0
  0
LTYPE
  5
3E
330
5
100
AcDbSymbolTableRecord
100
AcDbLinetypeTableRecord
  2
GETRENNT
 70
     0
  3
Getrennt ____ . . ____ . . ____
 72
    65
 73
     6
 40
1.25
 49
0.5
 74
     0
 49
-0.25
 74
     0
 49
0.0
 74
     0
 49
-0.25
 74
     0
 49
0.0
 74
     0
 49
-0.25
 74
     0
  0
LTYPE
  5
3F
330
5
100
AcDbSymbolTableRecord
100
AcDbLinetypeTableRecord
  2
GETRENNT2
 70
     0
  3
Getrennt (.5x) __..__..__..__..
 72
    65
 73
     6
 40
0.625
 49
0.25
 74
     0
 49
-0.125
 74
     0
 49
0.0
 74
     0
 49
-0.125
 74
     0
 49
0.0
 74
     0
 49
-0.125
 74
     0
  0
LTYPE
  5
40
330
5
100
AcDbSymbolTableRecord
100
AcDbLinetypeTableRecord
  2
GETRENNTX2
 70
     0
  3
Getrennt (2x) ________  .  .  _
 72
    65
 73
     6
 40
2.5
 49
1.0
 74
     0
 49
-0.5
 74
     0
 49
0.0
 74
     0
 49
-0.5
 74
     0
 49
0.0
 74
     0
 49
-0.5
 74
     0
  0
LTYPE
  5
41
330
5
100
AcDbSymbolTableRecord
100
AcDbLinetypeTableRecord
  2
PUNKT
 70
     0
  3
Punkt . . . . . . . . . . . . .
 72
    65
 73
     2
 40
0.25
 49
0.0
 74
     0
 49
-0.25
 74
     0
  0
LTYPE
  5
42
330
5
100
AcDbSymbolTableRecord
100
AcDbLinetypeTableRecord
  2
PUNKT2
 70
     0
  3
Punkt (.5x) ...................
 72
    65
 73
     2
 40
0.125
 49
0.0
 74
     0
 49
-0.125
 74
     0
  0
LTYPE
  5
43
330
5
100
AcDbSymbolTableRecord
100
AcDbLinetypeTableRecord
  2
PUNKTX2
 70
     0
  3
Punkt (2x) .  .  .  .  .  .  . 
 72
    65
 73
     2
 40
0.5
 49
0.0
 74
     0
 49
-0.5
 74
     0
  0
LTYPE
  5
44
330
5
100
AcDbSymbolTableRecord
100
AcDbLinetypeTableRecord
  2
VERDECKT
 70
     0
  3
Verdeckt __ __ __ __ __ __ __ _
 72
    65
 73
     2
 40
0.375
 49
0.25
 74
     0
 49
-0.125
 74
     0
  0
LTYPE
  5
45
330
5
100
AcDbSymbolTableRecord
100
AcDbLinetypeTableRecord
  2
VERDECKT2
 70
     0
  3
Verdeckt (.5x) _ _ _ _ _ _ _ _ 
 72
    65
 73
     2
 40
0.1875
 49
0.125
 74
     0
 49
-0.0625
 74
     0
  0
LTYPE
  5
46
330
5
100
AcDbSymbolTableRecord
100
AcDbLinetypeTableRecord
  2
VERDECKTX2
 70
     0
  3
Verdeckt (2x) ____ ____ ____ __
 72
    65
 73
     2
 40
0.75
 49
0.5
 74
     0
 49
-0.25
 74
     0
  0
LTYPE
  5
47
330
5
100
AcDbSymbolTableRecord
100
AcDbLinetypeTableRecord
  2
PHANTOM2
 70
     0
  3
Phantom (.5x) ___ _ _ ___ _ _ _
 72
    65
 73
     6
 40
1.25
 49
0.6250000000000001
 74
     0
 49
-0.125
 74
     0
 49
0.125
 74
     0
 49
-0.125
 74
     0
 49
0.125
 74
     0
 49
-0.125
 74
     0
  0
LTYPE
  5
48
330
5
100
AcDbSymbolTableRecord
100
AcDbLinetypeTableRecord
  2
PHANTOMX2
 70
     0
  3
Phantom (2x) ____________    __
 72
    65
 73
     6
 40
5.0
 49
2.5
 74
     0
 49
-0.5
 74
     0
 49
0.5
 74
     0
 49
-0.5
 74
     0
 49
0.5
 74
     0
 49
-0.5
 74
     0
  0
LTYPE
  5
49
330
5
100
AcDbSymbolTableRecord
100
AcDbLinetypeTableRecord
  2
PUNKTE
 70
     0
  3
Punkte - - - - - - - - - - - - 
 72
    65
 73
     2
 40
0.1
 49
0.05
 74
     0
 49
-0.05
 74
     0
  0
LTYPE
  5
4A
330
5
100
AcDbSymbolTableRecord
100
AcDbLinetypeTableRecord
  2
ACAD_ISO02W100
 70
     0
  3
__ __ __ __ __ __ __ __ __ __ _
 72
    65
 73
     2
 40
15.0
 49
12.0
 74
     0
 49
-3.0
 74
     0
  0
LTYPE
  5
4B
330
5
100
AcDbSymbolTableRecord
100
AcDbLinetypeTableRecord
  2
ACAD_ISO03W100
 70
     0
  3
__    __    __    __    __    _
 72
    65
 73
     2
 40
30.0
 49
12.0
 74
     0
 49
-18.0
 74
     0
  0
LTYPE
  5
4C
330
5
100
AcDbSymbolTableRecord
100
AcDbLinetypeTableRecord
  2
ACAD_ISO04W100
 70
     0
  3
____ . ____ . ____ . ____ . ___
 72
    65
 73
     4
 40
30.5
 49
24.0
 74
     0
 49
-3.0
 74
     0
 49
0.5
 74
     0
 49
-3.0
 74
     0
  0
LTYPE
  5
4D
330
5
100
AcDbSymbolTableRecord
100
AcDbLinetypeTableRecord
  2
ACAD_ISO05W100
 70
     0
  3
____ .. ____ .. ____ .. ____ ..
 72
    65
 73
     6
 40
34.0
 49
24.0
 74
     0
 49
-3.0
 74
     0
 49
0.5
 74
     0
 49
-3.0
 74
     0
 49
0.5
 74
     0
 49
-3.0
 74
     0
  0
LTYPE
  5
4E
330
5
100
AcDbSymbolTableRecord
100
AcDbLinetypeTableRecord
  2
ACAD_ISO06W100
 70
     0
  3
____ ... ____ ... ____ ... ____
 72
    65
 73
     6
 40
34.0
 49
24.0
 74
     0
 49
-3.0
 74
     0
 49
0.5
 74
     0
 49
-3.0
 74
     0
 49
0.5
 74
     0
 49
-3.0
 74
     0
  0
LTYPE
  5
4F
330
5
100
AcDbSymbolTableRecord
100
AcDbLinetypeTableRecord
  2
ACAD_ISO07W100
 70
     0
  3
. . . . . . . . . . . . . . . .
 72
    65
 73
     2
 40
3.5
 49
0.5
 74
     0
 49
-3.0
 74
     0
  0
LTYPE
  5
50
330
5
100
AcDbSymbolTableRecord
100
AcDbLinetypeTableRecord
  2
ACAD_ISO08W100
 70
     0
  3
____ __ ____ __ ____ __ ____ __
 72
    65
 73
     4
 40
36.0
 49
24.0
 74
     0
 49
-3.0
 74
     0
 49
6.0
 74
     0
 49
-3.0
 74
     0
  0
LTYPE
  5
51
330
5
100
AcDbSymbolTableRecord
100
AcDbLinetypeTableRecord
  2
ACAD_ISO09W100
 70
     0
  3
____ __ __ ____ __ __ ____ __ _
 72
    65
 73
     6
 40
45.0
 49
24.0
 74
     0
 49
-3.0
 74
     0
 49
6.0
 74
     0
 49
-3.0
 74
     0
 49
6.0
 74
     0
 49
-3.0
 74
     0
  0
LTYPE
  5
52
330
5
100
AcDbSymbolTableRecord
100
AcDbLinetypeTableRecord
  2
ACAD_ISO10W100
 70
     0
  3
__ . __ . __ . __ . __ . __ . _
 72
    65
 73
     4
 40
18.5
 49
12.0
 74
     0
 49
-3.0
 74
     0
 49
0.5
 74
     0
 49
-3.0
 74
     0
  0
LTYPE
  5
53
330
5
100
AcDbSymbolTableRecord
100
AcDbLinetypeTableRecord
  2
ACAD_ISO11W100
 70
     0
  3
__ __ . __ __ . __ __ . __ __ .
 72
    65
 73
     6
 40
33.5
 49
12.0
 74
     0
 49
-3.0
 74
     0
 49
12.0
 74
     0
 49
-3.0
 74
     0
 49
0.5
 74
     0
 49
-3.0
 74
     0
  0
LTYPE
  5
54
330
5
100
AcDbSymbolTableRecord
100
AcDbLinetypeTableRecord
  2
ACAD_ISO12W100
 70
     0
  3
__ . . __ . . __ . . __ . . __ 
 72
    65
 73
     6
 40
22.0
 49
12.0
 74
     0
 49
-3.0
 74
     0
 49
0.5
 74
     0
 49
-3.0
 74
     0
 49
0.5
 74
     0
 49
-3.0
 74
     0
  0
LTYPE
  5
55
330
5
100
AcDbSymbolTableRecord
100
AcDbLinetypeTableRecord
  2
ACAD_ISO13W100
 70
     0
  3
__ __ . . __ __ . . __ __ . . _
 72
    65
 73
     6
 40
33.5
 49
12.0
 74
     0
 49
-3.0
 74
     0
 49
12.0
 74
     0
 49
-3.0
 74
     0
 49
0.5
 74
     0
 49
-3.0
 74
     0
  0
LTYPE
  5
56
330
5
100
AcDbSymbolTableRecord
100
AcDbLinetypeTableRecord
  2
ACAD_ISO14W100
 70
     0
  3
__ . . . __ . . . __ . . . __ .
 72
    65
 73
     6
 40
22.0
 49
12.0
 74
     0
 49
-3.0
 74
     0
 49
0.5
 74
     0
 49
-3.0
 74
     0
 49
0.5
 74
     0
 49
-3.0
 74
     0
  0
LTYPE
  5
57
330
5
100
AcDbSymbolTableRecord
100
AcDbLinetypeTableRecord
  2
ACAD_ISO15W100
 70
     0
  3
__ __ . . . __ __ . . . __ __ .
 72
    65
 73
     6
 40
33.5
 49
12.0
 74
     0
 49
-3.0
 74
     0
 49
12.0
 74
     0
 49
-3.0
 74
     0
 49
0.5
 74
     0
 49
-3.0
 74
     0
  0
ENDTAB
  0
TABLE
  2
LAYER
  5
2
330
0
100
AcDbSymbolTable
 70
     2
  0
LAYER
  5
10
330
2
100
AcDbSymbolTableRecord
100
AcDbLayerTableRecord
  2
0
 70
     0
 62
     7
  6
Continuous
370
    -3
390
F
  0
LAYER
  5
58
330
2
100
AcDbSymbolTableRecord
100
AcDbLayerTableRecord
  2
1
 70
     0
 62
     7
  6
Continuous
370
    -3
390
F
  0
ENDTAB
  0
TABLE
  2
STYLE
  5
3
330
0
100
AcDbSymbolTable
 70
     5
  0
STYLE
  5
11
330
3
100
AcDbSymbolTableRecord
100
AcDbTextStyleTableRecord
  2
Standard
 70
     0
 40
0.0
 41
1.0
 50
0.0
 71
     0
 42
7.5
  3
txt
  4

  0
STYLE
  5
59
330
3
100
AcDbSymbolTableRecord
100
AcDbTextStyleTableRecord
  2
ITALIC
 70
     0
 40
0.0
 41
1.0
 50
0.0
 71
     0
 42
7.5
  3
ITALIC
  4

  0
STYLE
  5
5A
330
3
100
AcDbSymbolTableRecord
100
AcDbTextStyleTableRecord
  2
SIMPLEX
 70
     0
 40
0.0
 41
1.0
 50
0.0
 71
     0
 42
7.5
  3
SIMPLEX
  4

  0
STYLE
  5
5B
330
3
100
AcDbSymbolTableRecord
100
AcDbTextStyleTableRecord
  2
COMPLEX
 70
     0
 40
0.0
 41
1.0
 50
0.0
 71
     0
 42
7.5
  3
COMPLEX
  4

  0
STYLE
  5
5C
330
3
100
AcDbSymbolTableRecord
100
AcDbTextStyleTableRecord
  2
ARIAL
 70
     0
 40
0.0
 41
1.0
 50
0.0
 71
     0
 42
7.5
  3
arial.ttf
  4

1001
ACAD
1000
Arial
1071
        0
  0
ENDTAB
  0
TABLE
  2
VIEW
  5
6
330
0
100
AcDbSymbolTable
 70
     0
  0
ENDTAB
  0
TABLE
  2
UCS
  5
7
330
0
100
AcDbSymbolTable
 70
     0
  0
ENDTAB
  0
TABLE
  2
APPID
  5
9
330
0
100
AcDbSymbolTable
 70
     1
  0
APPID
  5
12
330
9
100
AcDbSymbolTableRecord
100
AcDbRegAppTableRecord
  2
ACAD
 70
     0
  0
ENDTAB
  0
TABLE
  2
DIMSTYLE
  5
A
330
0
100
AcDbSymbolTable
 70
     1
100
AcDbDimStyleTable
 71
     0
  0
DIMSTYLE
105
29
330
A
100
AcDbSymbolTableRecord
100
AcDbDimStyleTableRecord
  2
Standard
 70
     0
340
11
  0
ENDTAB
  0
TABLE
  2
BLOCK_RECORD
  5
1
330
0
100
AcDbSymbolTable
 70
     1
  0
BLOCK_RECORD
  5
21
330
1
100
AcDbSymbolTableRecord
100
AcDbBlockTableRecord
  2
*Model_Space
340
24
  0
BLOCK_RECORD
  5
1D
330
1
100
AcDbSymbolTableRecord
100
AcDbBlockTableRecord
  2
*Paper_Space
340
20
  0
BLOCK_RECORD
  5
25
330
1
100
AcDbSymbolTableRecord
100
AcDbBlockTableRecord
  2
*Paper_Space0
340
28
  0
ENDTAB
  0
ENDSEC
  0
SECTION
  2
BLOCKS
  0
BLOCK
  5
22
330
21
100
AcDbEntity
  8
0
100
AcDbBlockBegin
  2
*Model_Space
 70
     0
 10
0.0
 20
0.0
 30
0.0
  3
*Model_Space
  1

  0
ENDBLK
  5
23
330
21
100
AcDbEntity
  8
0
100
AcDbBlockEnd
  0
BLOCK
  5
1E
330
1D
100
AcDbEntity
 67
     1
  8
0
100
AcDbBlockBegin
  2
*Paper_Space
 70
     0
 10
0.0
 20
0.0
 30
0.0
  3
*Paper_Space
  1

  0
ENDBLK
  5
1F
330
1D
100
AcDbEntity
 67
     1
  8
0
100
AcDbBlockEnd
  0
BLOCK
  5
26
330
25
100
AcDbEntity
  8
0
100
AcDbBlockBegin
  2
*Paper_Space0
 70
     0
 10
0.0
 20
0.0
 30
0.0
  3
*Paper_Space0
  1

  0
ENDBLK
  5
27
330
25
100
AcDbEntity
  8
0
100
AcDbBlockEnd
  0
ENDSEC
  0
SECTION
  2
ENTITIES
  0
TEXT
  5
5D
330
21
100
AcDbEntity
  8
1
  6
Continuous
 62
     7
100
AcDbText
 10
599.2795140339362
 20
612.7338957096307
 30
0.0
 40
7.5
  1
SR-1427
  7
ARIAL
100
AcDbText
  0
CIRCLE
  5
5F
330
21
100
AcDbEntity
  8
1
  6
Continuous
 62
     7
100
AcDbCircle
 10
407.1213080146415
 20
451.5846637518286
 30
0.0
 40
3.499999999999999
  0
CIRCLE
  5
61
102
{ACAD_REACTORS
330
60
102
}
330
21
100
AcDbEntity
  8
1
  6
Continuous
 62
     7
100
AcDbCircle
 10
244.8517163331336
 20
848.2550613201816
 30
0.0
 40
39.5
  0
LINE
  5
62
102
{ACAD_REACTORS
330
60
102
}
330
21
100
AcDbEntity
  8
1
  6
Continuous
 62
     7
100
AcDbLine
 10
231.0829450893974
 20
810.0363021501621
 30
0.0
 11
225.9468014948528
 21
797.6365546259166
 31
0.0
  0
LINE
  5
63
102
{ACAD_REACTORS
330
60
102
}
330
21
100
AcDbEntity
  8
1
  6
Continuous
 62
     7
100
AcDbLine
 10
227.5629640705294
 20
811.494326027473
 30
0.0
 11
222.4268204759848
 21
799.0945785032274
 31
0.0
  0
LINE
  5
64
102
{ACAD_REACTORS
330
60
102
}
330
21
100
AcDbEntity
  8
1
  6
Continuous
 62
     7
100
AcDbLine
 10
227.1892274745004
 20
811.911137575651
 30
0.0
 11
231.6238492305545
 21
810.0742571002985
 31
0.0
  0
LINE
  5
65
102
{ACAD_REACTORS
330
60
102
}
330
21
100
AcDbEntity
  8
1
  6
Continuous
 62
     7
100
AcDbLine
 10
231.9716828158442
 20
810.9140016593539
 30
0.0
 11
231.6238492305545
 21
810.0742571002985
 31
0.0
  0
LINE
  5
66
102
{ACAD_REACTORS
330
60
102
}
330
21
100
AcDbEntity
  8
1
  6
Continuous
 62
     7
100
AcDbLine
 10
227.5375173778813
 20
812.7519837840308
 30
0.0
 11
227.1892274745004
 21
811.911137575651
 31
0.0
  0
LINE
  5
67
102
{ACAD_REACTORS
330
60
102
}
330
21
100
AcDbEntity
  8
1
  6
Continuous
 62
     7
100
AcDbLine
 10
227.2153849872981
 20
811.6382979977446
 30
0.0
 11
231.3728428835989
 21
809.9162225521018
 31
0.0
  0
LINE
  5
68
102
{ACAD_REACTORS
330
60
102
}
330
21
100
AcDbEntity
  8
1
  6
Continuous
 62
     7
100
AcDbLine
 10
227.2153849872981
 20
811.6382979977446
 30
0.0
 11
227.1892274745004
 21
811.911137575651
 31
0.0
  0
LINE
  5
69
102
{ACAD_REACTORS
330
60
102
}
330
21
100
AcDbEntity
  8
1
  6
Continuous
 62
     7
100
AcDbLine
 10
231.3728428835989
 20
809.9162225521018
 30
0.0
 11
231.6238492305545
 21
810.0742571002985
 31
0.0
  0
LINE
  5
6A
102
{ACAD_REACTORS
330
60
102
}
330
21
100
AcDbEntity
  8
1
  6
Continuous
 62
     7
100
AcDbLine
 10
222.4268204759848
 20
799.0945785032274
 30
0.0
 11
225.9468014948528
 21
797.6365546259166
 31
0.0
  0
LINE
  5
6B
102
{ACAD_REACTORS
330
60
102
}
330
21
100
AcDbEntity
  8
1
  6
Continuous
 62
     7
100
AcDbLine
 10
222.8479432374043
 20
800.1112587852704
 30
0.0
 11
226.3679242562723
 21
798.6532349079594
 31
0.0
  0
CIRCLE
  5
6C
102
{ACAD_REACTORS
330
60
102
}
330
21
100
AcDbEntity
  8
1
  6
Continuous
 62
     7
100
AcDbCircle
 10
236.2391973624495
 20
809.2845732789452
 30
0.0
 40
0.3776415005640337
  0
CIRCLE
  5
6D
102
{ACAD_REACTORS
330
60
102
}
330
21
100
AcDbEntity
  8
1
  6
Continuous
 62
     7
100
AcDbCircle
 10
253.4706510426625
 20
809.3272334514516
 30
0.0
 40
0.3776415005640337
  0
LINE
  5
6E
102
{ACAD_REACTORS
330
60
102
}
330
21
100
AcDbEntity
  8
1
  6
Continuous
 62
     7
100
AcDbLine
 10
260.1211385639475
 20
806.4134101847743
 30
0.0
 11
263.6411195828153
 21
807.8714340620853
 31
0.0
  0
LINE
  5
6F
102
{ACAD_REACTORS
330
60
102
}
330
21
100
AcDbEntity
  8
1
  6
Continuous
 62
     7
100
AcDbLine
 10
260.0085454674602
 20
806.7617214664222
 30
0.0
 11
263.5285264863282
 21
808.2197453437334
 31
0.0
  0
LINE
  5
70
102
{ACAD_REACTORS
330
60
102
}
330
21
100
AcDbEntity
  8
1
  6
Continuous
 62
     7
100
AcDbLine
 10
262.1487390158701
 20
811.4743594670265
 30
0.0
 11
263.6411195828153
 21
807.8714340620853
 31
0.0
  0
LINE
  5
71
102
{ACAD_REACTORS
330
60
102
}
330
21
100
AcDbEntity
  8
1
  6
Continuous
 62
     7
100
AcDbLine
 10
258.6287579970021
 20
810.0163355897155
 30
0.0
 11
260.1211385639475
 21
806.4134101847743
 31
0.0
  0
LINE
  5
72
102
{ACAD_REACTORS
330
60
102
}
330
21
100
AcDbEntity
  8
1
  6
Continuous
 62
     7
100
AcDbLine
 10
258.0388639124145
 20
810.0339982408632
 30
0.0
 11
262.4734856684687
 21
811.8708787162157
 31
0.0
  0
LINE
  5
73
102
{ACAD_REACTORS
330
60
102
}
330
21
100
AcDbEntity
  8
1
  6
Continuous
 62
     7
100
AcDbLine
 10
262.125652083179
 20
812.710623275271
 30
0.0
 11
262.4734856684687
 21
811.8708787162157
 31
0.0
  0
LINE
  5
74
102
{ACAD_REACTORS
330
60
102
}
330
21
100
AcDbEntity
  8
1
  6
Continuous
 62
     7
100
AcDbLine
 10
257.6905740090336
 20
810.8748444492432
 30
0.0
 11
258.0388639124145
 21
810.0339982408632
 31
0.0
  0
LINE
  5
75
102
{ACAD_REACTORS
330
60
102
}
330
21
100
AcDbEntity
  8
1
  6
Continuous
 62
     7
100
AcDbLine
 10
258.2502867828064
 20
809.8595676798279
 30
0.0
 11
262.4077446791072
 21
811.5816431254708
 31
0.0
  0
LINE
  5
76
102
{ACAD_REACTORS
330
60
102
}
330
21
100
AcDbEntity
  8
1
  6
Continuous
 62
     7
100
AcDbLine
 10
258.2502867828064
 20
809.8595676798279
 30
0.0
 11
258.0388639124145
 21
810.0339982408632
 31
0.0
  0
LINE
  5
77
102
{ACAD_REACTORS
330
60
102
}
330
21
100
AcDbEntity
  8
1
  6
Continuous
 62
     7
100
AcDbLine
 10
262.4077446791072
 20
811.5816431254708
 30
0.0
 11
262.4734856684687
 21
811.8708787162157
 31
0.0
  0
CIRCLE
  5
78
102
{ACAD_REACTORS
330
60
102
}
330
21
100
AcDbEntity
  8
1
  6
Continuous
 62
     7
100
AcDbCircle
 10
244.8517163331336
 20
848.2550613201816
 30
0.0
 40
1.25
  0
CIRCLE
  5
79
102
{ACAD_REACTORS
330
60
102
}
330
21
100
AcDbEntity
  8
1
  6
Continuous
 62
     7
100
AcDbCircle
 10
244.8517163331336
 20
848.2550613201816
 30
0.0
 40
1.074999999999999
  0
LINE
  5
7A
330
21
100
AcDbEntity
  8
1
  6
Continuous
 62
     7
100
AcDbLine
 10
393.9468213490786
 20
424.5846637518286
 30
0.0
 11
426.4468213490784
 21
424.5846637518286
 31
0.0
  0
LINE
  5
7B
330
21
100
AcDbEntity
  8
1
  6
Continuous
 62
     7
100
AcDbLine
 10
426.4468213490784
 20
424.5846637518286
 30
0.0
 11
458.9468213490786
 21
424.5846637518286
 31
0.0
  0
LINE
  5
7C
330
21
100
AcDbEntity
  8
1
  6
Continuous
 62
     7
100
AcDbLine
 10
212.3517163331336
 20
426.3854913628957
 30
0.0
 11
244.8517163331336
 21
426.3854913628957
 31
0.0
  0
LINE
  5
7D
330
21
100
AcDbEntity
  8
1
  6
Continuous
 62
     7
100
AcDbLine
 10
244.8517163331336
 20
426.3854913628957
 30
0.0
 11
277.3517163331337
 21
426.3854913628957
 31
0.0
  0
LINE
  5
7E
330
21
100
AcDbEntity
  8
1
  6
Continuous
 62
     7
100
AcDbLine
 10
571.7275987458092
 20
425.3247416380804
 30
0.0
 11
616.7275987458091
 21
425.3247416380804
 31
0.0
  0
LINE
  5
7F
330
21
100
AcDbEntity
  8
1
  6
Continuous
 62
     7
100
AcDbLine
 10
616.7275987458091
 20
425.3247416380804
 30
0.0
 11
661.7275987458092
 21
425.3247416380804
 31
0.0
  0
CIRCLE
  5
80
330
21
100
AcDbEntity
  8
1
  6
Continuous
 62
     7
100
AcDbCircle
 10
616.7275987458089
 20
847.7550613328814
 30
0.0
 40
50.0
  0
CIRCLE
  5
81
330
21
100
AcDbEntity
  8
1
  6
Continuous
 62
     7
100
AcDbCircle
 10
605.7417864870095
 20
798.5217106338631
 30
0.0
 40
0.3776415005640337
  0
CIRCLE
  5
82
330
21
100
AcDbEntity
  8
1
  6
Continuous
 62
     7
100
AcDbCircle
 10
627.6735065902454
 20
798.5786218145724
 30
0.0
 40
0.3776415005640337
  0
LINE
  5
83
330
21
100
AcDbEntity
  8
1
  6
Continuous
 62
     7
100
AcDbLine
 10
636.049863932492
 20
796.1289817672478
 30
0.0
 11
639.56984495136
 21
797.5870056445589
 31
0.0
  0
LINE
  5
84
330
21
100
AcDbEntity
  8
1
  6
Continuous
 62
     7
100
AcDbLine
 10
635.9372708360048
 20
796.4772930488958
 30
0.0
 11
639.4572518548727
 21
797.935316926207
 31
0.0
  0
LINE
  5
85
330
21
100
AcDbEntity
  8
1
  6
Continuous
 62
     7
100
AcDbLine
 10
638.0774643844144
 20
801.1899310495
 30
0.0
 11
639.56984495136
 21
797.5870056445589
 31
0.0
  0
LINE
  5
86
330
21
100
AcDbEntity
  8
1
  6
Continuous
 62
     7
100
AcDbLine
 10
634.5574833655466
 20
799.731907172189
 30
0.0
 11
636.049863932492
 21
796.1289817672478
 31
0.0
  0
LINE
  5
87
330
21
100
AcDbEntity
  8
1
  6
Continuous
 62
     7
100
AcDbLine
 10
633.967589280959
 20
799.7495698233368
 30
0.0
 11
638.4022110370133
 21
801.5864502986891
 31
0.0
  0
LINE
  5
88
330
21
100
AcDbEntity
  8
1
  6
Continuous
 62
     7
100
AcDbLine
 10
638.0178727853348
 20
802.5143249184297
 30
0.0
 11
638.4022110370133
 21
801.5864502986891
 31
0.0
  0
LINE
  5
89
330
21
100
AcDbEntity
  8
1
  6
Continuous
 62
     7
100
AcDbLine
 10
633.5816609604156
 20
800.6812832088966
 30
0.0
 11
633.967589280959
 21
799.7495698233368
 31
0.0
  0
LINE
  5
8A
330
21
100
AcDbEntity
  8
1
  6
Continuous
 62
     7
100
AcDbLine
 10
634.1790121513509
 20
799.5751392623014
 30
0.0
 11
638.3364700476519
 21
801.2972147079443
 31
0.0
  0
LINE
  5
8B
330
21
100
AcDbEntity
  8
1
  6
Continuous
 62
     7
100
AcDbLine
 10
634.1790121513509
 20
799.5751392623014
 30
0.0
 11
633.967589280959
 21
799.7495698233368
 31
0.0
  0
LINE
  5
8C
330
21
100
AcDbEntity
  8
1
  6
Continuous
 62
     7
100
AcDbLine
 10
638.3364700476519
 20
801.2972147079443
 30
0.0
 11
638.4022110370133
 21
801.5864502986891
 31
0.0
  0
CIRCLE
  5
8D
330
21
100
AcDbEntity
  8
1
  6
Continuous
 62
     7
100
AcDbCircle
 10
616.7275987458089
 20
847.7550613328814
 30
0.0
 40
1.25
  0
CIRCLE
  5
8E
330
21
100
AcDbEntity
  8
1
  6
Continuous
 62
     7
100
AcDbCircle
 10
616.7275987458089
 20
847.7550613328814
 30
0.0
 40
1.074999999999999
  0
LINE
  5
8F
330
21
100
AcDbEntity
  8
1
  6
Continuous
 62
     7
100
AcDbLine
 10
761.7484698605091
 20
422.7670501732039
 30
0.0
 11
806.748469860509
 21
422.7670501732039
 31
0.0
  0
LINE
  5
90
330
21
100
AcDbEntity
  8
1
  6
Continuous
 62
     7
100
AcDbLine
 10
806.748469860509
 20
422.7670501732039
 30
0.0
 11
851.7484698605088
 21
422.7670501732039
 31
0.0
  0
CIRCLE
  5
92
102
{ACAD_REACTORS
330
91
102
}
330
21
100
AcDbEntity
  8
1
  6
Continuous
 62
     7
100
AcDbCircle
 10
426.4468213490785
 20
848.2550613201816
 30
0.0
 40
39.5
  0
LINE
  5
93
102
{ACAD_REACTORS
330
91
102
}
330
21
100
AcDbEntity
  8
1
  6
Continuous
 62
     7
100
AcDbLine
 10
412.6780501053423
 20
810.0363021501621
 30
0.0
 11
407.5419065107977
 21
797.6365546259166
 31
0.0
  0
LINE
  5
94
102
{ACAD_REACTORS
330
91
102
}
330
21
100
AcDbEntity
  8
1
  6
Continuous
 62
     7
100
AcDbLine
 10
409.1580690864744
 20
811.494326027473
 30
0.0
 11
404.0219254919297
 21
799.0945785032274
 31
0.0
  0
LINE
  5
95
102
{ACAD_REACTORS
330
91
102
}
330
21
100
AcDbEntity
  8
1
  6
Continuous
 62
     7
100
AcDbLine
 10
408.7843324904453
 20
811.911137575651
 30
0.0
 11
413.2189542464995
 21
810.0742571002985
 31
0.0
  0
LINE
  5
96
102
{ACAD_REACTORS
330
91
102
}
330
21
100
AcDbEntity
  8
1
  6
Continuous
 62
     7
100
AcDbLine
 10
413.5667878317892
 20
810.9140016593539
 30
0.0
 11
413.2189542464995
 21
810.0742571002985
 31
0.0
  0
LINE
  5
97
102
{ACAD_REACTORS
330
91
102
}
330
21
100
AcDbEntity
  8
1
  6
Continuous
 62
     7
100
AcDbLine
 10
409.1326223938263
 20
812.7519837840308
 30
0.0
 11
408.7843324904453
 21
811.911137575651
 31
0.0
  0
LINE
  5
98
102
{ACAD_REACTORS
330
91
102
}
330
21
100
AcDbEntity
  8
1
  6
Continuous
 62
     7
100
AcDbLine
 10
408.8104900032431
 20
811.6382979977446
 30
0.0
 11
412.9679478995439
 21
809.9162225521018
 31
0.0
  0
LINE
  5
99
102
{ACAD_REACTORS
330
91
102
}
330
21
100
AcDbEntity
  8
1
  6
Continuous
 62
     7
100
AcDbLine
 10
408.8104900032431
 20
811.6382979977446
 30
0.0
 11
408.7843324904453
 21
811.911137575651
 31
0.0
  0
LINE
  5
9A
102
{ACAD_REACTORS
330
91
102
}
330
21
100
AcDbEntity
  8
1
  6
Continuous
 62
     7
100
AcDbLine
 10
412.9679478995439
 20
809.9162225521018
 30
0.0
 11
413.2189542464995
 21
810.0742571002985
 31
0.0
  0
LINE
  5
9B
102
{ACAD_REACTORS
330
91
102
}
330
21
100
AcDbEntity
  8
1
  6
Continuous
 62
     7
100
AcDbLine
 10
404.0219254919297
 20
799.0945785032274
 30
0.0
 11
407.5419065107977
 21
797.6365546259166
 31
0.0
  0
LINE
  5
9C
102
{ACAD_REACTORS
330
91
102
}
330
21
100
AcDbEntity
  8
1
  6
Continuous
 62
     7
100
AcDbLine
 10
404.4430482533492
 20
800.1112587852704
 30
0.0
 11
407.9630292722172
 21
798.6532349079594
 31
0.0
  0
CIRCLE
  5
9D
102
{ACAD_REACTORS
330
91
102
}
330
21
100
AcDbEntity
  8
1
  6
Continuous
 62
     7
100
AcDbCircle
 10
417.8343023783945
 20
809.2845732789452
 30
0.0
 40
0.3776415005640337
  0
CIRCLE
  5
9E
102
{ACAD_REACTORS
330
91
102
}
330
21
100
AcDbEntity
  8
1
  6
Continuous
 62
     7
100
AcDbCircle
 10
435.0657560586075
 20
809.3272334514516
 30
0.0
 40
0.3776415005640337
  0
LINE
  5
9F
102
{ACAD_REACTORS
330
91
102
}
330
21
100
AcDbEntity
  8
1
  6
Continuous
 62
     7
100
AcDbLine
 10
441.7162435798925
 20
806.4134101847743
 30
0.0
 11
445.2362245987603
 21
807.8714340620853
 31
0.0
  0
LINE
  5
A0
102
{ACAD_REACTORS
330
91
102
}
330
21
100
AcDbEntity
  8
1
  6
Continuous
 62
     7
100
AcDbLine
 10
441.6036504834052
 20
806.7617214664222
 30
0.0
 11
445.1236315022732
 21
808.2197453437334
 31
0.0
  0
LINE
  5
A1
102
{ACAD_REACTORS
330
91
102
}
330
21
100
AcDbEntity
  8
1
  6
Continuous
 62
     7
100
AcDbLine
 10
443.743844031815
 20
811.4743594670265
 30
0.0
 11
445.2362245987603
 21
807.8714340620853
 31
0.0
  0
LINE
  5
A2
102
{ACAD_REACTORS
330
91
102
}
330
21
100
AcDbEntity
  8
1
  6
Continuous
 62
     7
100
AcDbLine
 10
440.223863012947
 20
810.0163355897155
 30
0.0
 11
441.7162435798925
 21
806.4134101847743
 31
0.0
  0
LINE
  5
A3
102
{ACAD_REACTORS
330
91
102
}
330
21
100
AcDbEntity
  8
1
  6
Continuous
 62
     7
100
AcDbLine
 10
439.6339689283595
 20
810.0339982408632
 30
0.0
 11
444.0685906844136
 21
811.8708787162157
 31
0.0
  0
LINE
  5
A4
102
{ACAD_REACTORS
330
91
102
}
330
21
100
AcDbEntity
  8
1
  6
Continuous
 62
     7
100
AcDbLine
 10
443.7207570991239
 20
812.710623275271
 30
0.0
 11
444.0685906844136
 21
811.8708787162157
 31
0.0
  0
LINE
  5
A5
102
{ACAD_REACTORS
330
91
102
}
330
21
100
AcDbEntity
  8
1
  6
Continuous
 62
     7
100
AcDbLine
 10
439.2856790249786
 20
810.8748444492432
 30
0.0
 11
439.6339689283595
 21
810.0339982408632
 31
0.0
  0
LINE
  5
A6
102
{ACAD_REACTORS
330
91
102
}
330
21
100
AcDbEntity
  8
1
  6
Continuous
 62
     7
100
AcDbLine
 10
439.8453917987514
 20
809.8595676798279
 30
0.0
 11
444.0028496950522
 21
811.5816431254708
 31
0.0
  0
LINE
  5
A7
102
{ACAD_REACTORS
330
91
102
}
330
21
100
AcDbEntity
  8
1
  6
Continuous
 62
     7
100
AcDbLine
 10
439.8453917987514
 20
809.8595676798279
 30
0.0
 11
439.6339689283595
 21
810.0339982408632
 31
0.0
  0
LINE
  5
A8
102
{ACAD_REACTORS
330
91
102
}
330
21
100
AcDbEntity
  8
1
  6
Continuous
 62
     7
100
AcDbLine
 10
444.0028496950522
 20
811.5816431254708
 30
0.0
 11
444.0685906844136
 21
811.8708787162157
 31
0.0
  0
CIRCLE
  5
A9
102
{ACAD_REACTORS
330
91
102
}
330
21
100
AcDbEntity
  8
1
  6
Continuous
 62
     7
100
AcDbCircle
 10
426.4468213490785
 20
848.2550613201816
 30
0.0
 40
1.25
  0
CIRCLE
  5
AA
102
{ACAD_REACTORS
330
91
102
}
330
21
100
AcDbEntity
  8
1
  6
Continuous
 62
     7
100
AcDbCircle
 10
426.4468213490785
 20
848.2550613201816
 30
0.0
 40
1.074999999999999
  0
TEXT
  5
AB
330
21
100
AcDbEntity
  8
1
  6
Continuous
 62
     7
100
AcDbText
 10
124.2480217329287
 20
1201.968057091918
 30
0.0
 40
35.0
  1
SolvisStrato (mit Isolierung)
  7
ARIAL
100
AcDbText
  0
TEXT
  5
AC
330
21
100
AcDbEntity
  8
1
  6
Continuous
 62
     7
100
AcDbText
 10
124.2480217329287
 20
1149.468057091918
 30
0.0
 40
35.0
  1
Maßstab 1:50
  7
ARIAL
100
AcDbText
  0
TEXT
  5
AD
330
21
100
AcDbEntity
  8
1
  6
Continuous
 62
     7
100
AcDbText
 10
228.6385588758819
 20
579.2406454132616
 30
0.0
 40
7.5
  1
SR-727
  7
ARIAL
100
AcDbText
  0
TEXT
  5
AE
330
21
100
AcDbEntity
  8
1
  6
Continuous
 62
     7
100
AcDbText
 10
410.1469749556848
 20
612.6513828579882
 30
0.0
 40
7.5
  1
SR-917
  7
ARIAL
100
AcDbText
  0
TEXT
  5
AF
330
21
100
AcDbEntity
  8
1
  6
Continuous
 62
     7
100
AcDbText
 10
789.4814956201056
 20
662.2272208264714
 30
0.0
 40
7.5
  1
SR-1817
  7
ARIAL
100
AcDbText
  0
LINE
  5
B0
330
21
100
AcDbEntity
  8
1
  6
Continuous
 62
     7
100
AcDbLine
 10
295.3517163331337
 20
426.3854913628957
 30
0.0
 11
295.3517163331337
 21
607.3854913628956
 31
0.0
  0
LINE
  5
B1
330
21
100
AcDbEntity
  8
1
  6
Continuous
 62
     7
100
AcDbLine
 10
194.3517163331336
 20
426.3854913628957
 30
0.0
 11
194.3517163331336
 21
607.3854913628956
 31
0.0
  0
LINE
  5
B2
330
21
100
AcDbEntity
  8
1
  6
Continuous
 62
     7
100
AcDbLine
 10
194.3517163331336
 20
607.3854913628956
 30
0.0
 11
295.3517163331337
 21
607.3854913628956
 31
0.0
  0
LINE
  5
B3
330
21
100
AcDbEntity
  8
1
  6
Continuous
 62
     7
100
AcDbLine
 10
194.3517163331336
 20
426.3854913628957
 30
0.0
 11
295.3517163331337
 21
426.3854913628957
 31
0.0
  0
LINE
  5
B4
330
21
100
AcDbEntity
  8
1
  6
Continuous
 62
     7
100
AcDbLine
 10
194.5
 20
603.0
 30
0.0
 11
295.5
 21
603.0
 31
0.0
  0
LINE
  5
B5
330
21
100
AcDbEntity
  8
1
  6
Continuous
 62
     7
100
AcDbLine
 10
194.5
 20
431.9999999999999
 30
0.0
 11
295.5
 21
431.9999999999999
 31
0.0
  0
CIRCLE
  5
B6
330
21
100
AcDbEntity
  8
1
  6
Continuous
 62
     7
100
AcDbCircle
 10
225.675
 20
563.3718203165551
 30
0.0
 40
3.499999999999999
  0
CIRCLE
  5
B7
330
21
100
AcDbEntity
  8
1
  6
Continuous
 62
     7
100
AcDbCircle
 10
225.675
 20
453.3854913628957
 30
0.0
 40
3.499999999999999
  0
CIRCLE
  5
B8
330
21
100
AcDbEntity
  8
1
  6
Continuous
 62
     7
100
AcDbCircle
 10
264.325
 20
453.3854913628957
 30
0.0
 40
3.499999999999999
  0
CIRCLE
  5
B9
330
21
100
AcDbEntity
  8
1
  6
Continuous
 62
     7
100
AcDbCircle
 10
264.325
 20
553.3854913628958
 30
0.0
 40
3.499999999999999
  0
CIRCLE
  5
BA
330
21
100
AcDbEntity
  8
1
  6
Continuous
 62
     7
100
AcDbCircle
 10
225.675
 20
543.3854913628957
 30
0.0
 40
3.999999999999999
  0
CIRCLE
  5
BB
330
21
100
AcDbEntity
  8
1
  6
Continuous
 62
     7
100
AcDbCircle
 10
225.675
 20
523.3854913628958
 30
0.0
 40
3.999999999999999
  0
CIRCLE
  5
BC
330
21
100
AcDbEntity
  8
1
  6
Continuous
 62
     7
100
AcDbCircle
 10
225.675
 20
503.3854913628956
 30
0.0
 40
3.999999999999999
  0
CIRCLE
  5
BD
330
21
100
AcDbEntity
  8
1
  6
Continuous
 62
     7
100
AcDbCircle
 10
225.675
 20
465.9999999999999
 30
0.0
 40
3.999999999999999
  0
CIRCLE
  5
BE
330
21
100
AcDbEntity
  8
1
  6
Continuous
 62
     7
100
AcDbCircle
 10
264.325
 20
533.3854913628957
 30
0.0
 40
3.999999999999999
  0
CIRCLE
  5
BF
330
21
100
AcDbEntity
  8
1
  6
Continuous
 62
     7
100
AcDbCircle
 10
264.325
 20
513.3854913628957
 30
0.0
 40
3.999999999999999
  0
CIRCLE
  5
C0
330
21
100
AcDbEntity
  8
1
  6
Continuous
 62
     7
100
AcDbCircle
 10
264.325
 20
493.3854913628956
 30
0.0
 40
3.999999999999999
  0
CIRCLE
  5
C1
330
21
100
AcDbEntity
  8
1
  6
Continuous
 62
     7
100
AcDbCircle
 10
264.325
 20
465.9999999999999
 30
0.0
 40
3.999999999999999
  0
LINE
  5
C2
330
21
100
AcDbEntity
  8
1
  6
Continuous
 62
     7
100
AcDbLine
 10
259.1310289708423
 20
431.9999999999999
 30
0.0
 11
259.1310289708423
 21
603.0
 31
0.0
  0
LINE
  5
C3
330
21
100
AcDbEntity
  8
1
  6
Continuous
 62
     7
100
AcDbLine
 10
269.4249867553759
 20
431.9999999999999
 30
0.0
 11
269.4249867553759
 21
603.0
 31
0.0
  0
LINE
  5
C4
330
21
100
AcDbEntity
  8
1
  6
Continuous
 62
     7
100
AcDbLine
 10
230.8794922929312
 20
431.9999999999999
 30
0.0
 11
230.8794922929312
 21
603.0
 31
0.0
  0
LINE
  5
C5
330
21
100
AcDbEntity
  8
1
  6
Continuous
 62
     7
100
AcDbLine
 10
220.3704368830491
 20
431.9999999999999
 30
0.0
 11
220.3704368830491
 21
603.0
 31
0.0
  0
LINE
  5
C7
102
{ACAD_REACTORS
330
C6
102
}
330
21
100
AcDbEntity
  8
1
  6
Continuous
 62
     7
100
AcDbLine
 10
260.4486491802605
 20
798.4723241345258
 30
0.0
 11
268.6711770196109
 21
801.878206682575
 31
0.0
  0
LINE
  5
C8
102
{ACAD_REACTORS
330
C6
102
}
330
21
100
AcDbEntity
  8
1
  6
Continuous
 62
     7
100
AcDbLine
 10
229.2547834860067
 20
798.4723241345258
 30
0.0
 11
221.0322556466563
 21
801.878206682575
 31
0.0
  0
LINE
  5
C9
102
{ACAD_REACTORS
330
C6
102
}
330
21
100
AcDbEntity
  8
1
  6
Continuous
 62
     7
100
AcDbLine
 10
240.4017163331336
 20
899.2550613328816
 30
0.0
 11
249.3017163331336
 21
899.2550613328816
 31
0.0
  0
LINE
  5
CA
102
{ACAD_REACTORS
330
C6
102
}
330
21
100
AcDbEntity
  8
1
  6
Continuous
 62
     7
100
AcDbLine
 10
249.3017163331336
 20
898.0586148852898
 30
0.0
 11
249.3017163331336
 21
899.2550613328816
 31
0.0
  0
LINE
  5
CB
102
{ACAD_REACTORS
330
C6
102
}
330
21
100
AcDbEntity
  8
1
  6
Continuous
 62
     7
100
AcDbLine
 10
240.4017163331336
 20
898.0586148852898
 30
0.0
 11
240.4017163331336
 21
899.2550613328816
 31
0.0
  0
LINE
  5
CC
102
{ACAD_REACTORS
330
C6
102
}
330
21
100
AcDbEntity
  8
1
  6
Continuous
 62
     7
100
AcDbLine
 10
268.6711770196109
 20
801.878206682575
 30
0.0
 11
268.2133167864055
 21
802.983579067251
 31
0.0
  0
LINE
  5
CD
102
{ACAD_REACTORS
330
C6
102
}
330
21
100
AcDbEntity
  8
1
  6
Continuous
 62
     7
100
AcDbLine
 10
260.4486491802605
 20
798.4723241345258
 30
0.0
 11
259.9907889470551
 21
799.5776965192017
 31
0.0
  0
LINE
  5
CE
102
{ACAD_REACTORS
330
C6
102
}
330
21
100
AcDbEntity
  8
1
  6
Continuous
 62
     7
100
AcDbLine
 10
229.2547834860067
 20
798.4723241345258
 30
0.0
 11
229.7126437192122
 21
799.5776965192017
 31
0.0
  0
LINE
  5
CF
102
{ACAD_REACTORS
330
C6
102
}
330
21
100
AcDbEntity
  8
1
  6
Continuous
 62
     7
100
AcDbLine
 10
221.0322556466563
 20
801.878206682575
 30
0.0
 11
221.4901158798617
 21
802.9835790672509
 31
0.0
  0
ARC
  5
D0
102
{ACAD_REACTORS
330
C6
102
}
330
21
100
AcDbEntity
  8
1
  6
Continuous
 62
     7
100
AcDbCircle
 10
244.8517163331336
 20
847.7550613328817
 30
0.0
 40
50.5
100
AcDbArc
 50
95.05539292587068
 51
242.4446070741294
  0
ARC
  5
D1
102
{ACAD_REACTORS
330
C6
102
}
330
21
100
AcDbEntity
  8
1
  6
Continuous
 62
     7
100
AcDbCircle
 10
244.8517163331336
 20
847.7550613328817
 30
0.0
 40
50.5
100
AcDbArc
 50
297.5553929258707
 51
84.9446070741294
  0
ARC
  5
D2
102
{ACAD_REACTORS
330
C6
102
}
330
21
100
AcDbEntity
  8
1
  6
Continuous
 62
     7
100
AcDbCircle
 10
244.8517163331336
 20
847.7550613328817
 30
0.0
 40
50.5
100
AcDbArc
 50
252.5553929258705
 51
287.4446070741294
  0
LINE
  5
D3
330
21
100
AcDbEntity
  8
1
  6
Continuous
 62
     7
100
AcDbLine
 10
375.9468213490785
 20
644.5846637518286
 30
0.0
 11
476.9468213490784
 21
644.5846637518286
 31
0.0
  0
LINE
  5
D4
330
21
100
AcDbEntity
  8
1
  6
Continuous
 62
     7
100
AcDbLine
 10
555.7275987458089
 20
647.8247416380803
 30
0.0
 11
677.7275987458089
 21
647.8247416380803
 31
0.0
  0
LINE
  5
D5
330
21
100
AcDbEntity
  8
1
  6
Continuous
 62
     7
100
AcDbLine
 10
745.7484698605087
 20
695.2670501732038
 30
0.0
 11
867.7484698605088
 21
695.2670501732038
 31
0.0
  0
LINE
  5
D6
330
21
100
AcDbEntity
  8
1
  6
Continuous
 62
     7
100
AcDbLine
 10
867.7484698605089
 20
422.7670501732039
 30
0.0
 11
867.7484698605088
 21
695.2670501732038
 31
0.0
  0
LINE
  5
D7
330
21
100
AcDbEntity
  8
1
  6
Continuous
 62
     7
100
AcDbLine
 10
745.748469860509
 20
422.7670501732039
 30
0.0
 11
745.7484698605087
 21
695.2670501732038
 31
0.0
  0
LINE
  5
D8
330
21
100
AcDbEntity
  8
1
  6
Continuous
 62
     7
100
AcDbLine
 10
677.7275987458092
 20
425.3247416380804
 30
0.0
 11
677.7275987458089
 21
647.8247416380803
 31
0.0
  0
LINE
  5
D9
330
21
100
AcDbEntity
  8
1
  6
Continuous
 62
     7
100
AcDbLine
 10
555.7275987458091
 20
425.3247416380804
 30
0.0
 11
555.7275987458089
 21
647.8247416380803
 31
0.0
  0
LINE
  5
DA
330
21
100
AcDbEntity
  8
1
  6
Continuous
 62
     7
100
AcDbLine
 10
476.9468213490787
 20
424.5846637518286
 30
0.0
 11
476.9468213490784
 21
644.5846637518286
 31
0.0
  0
LINE
  5
DB
330
21
100
AcDbEntity
  8
1
  6
Continuous
 62
     7
100
AcDbLine
 10
375.9468213490787
 20
424.5846637518286
 30
0.0
 11
375.9468213490785
 21
644.5846637518286
 31
0.0
  0
LINE
  5
DC
330
21
100
AcDbEntity
  8
1
  6
Continuous
 62
     7
100
AcDbLine
 10
375.9468213490787
 20
424.5846637518286
 30
0.0
 11
476.9468213490787
 21
424.5846637518286
 31
0.0
  0
LINE
  5
DD
330
21
100
AcDbEntity
  8
1
  6
Continuous
 62
     7
100
AcDbLine
 10
555.7275987458091
 20
425.3247416380804
 30
0.0
 11
677.7275987458092
 21
425.3247416380804
 31
0.0
  0
LINE
  5
DE
330
21
100
AcDbEntity
  8
1
  6
Continuous
 62
     7
100
AcDbLine
 10
745.748469860509
 20
422.7670501732039
 30
0.0
 11
867.7484698605089
 21
422.7670501732039
 31
0.0
  0
CIRCLE
  5
DF
330
21
100
AcDbEntity
  8
1
  6
Continuous
 62
     7
100
AcDbCircle
 10
445.7723346835155
 20
451.5846637518286
 30
0.0
 40
3.499999999999999
  0
CIRCLE
  5
E0
330
21
100
AcDbEntity
  8
1
  6
Continuous
 62
     7
100
AcDbCircle
 10
445.7723346835155
 20
464.0846637518286
 30
0.0
 40
3.499999999999999
  0
CIRCLE
  5
E1
330
21
100
AcDbEntity
  8
1
  6
Continuous
 62
     7
100
AcDbCircle
 10
407.1213080146415
 20
600.5846637518287
 30
0.0
 40
3.499999999999999
  0
CIRCLE
  5
E2
330
21
100
AcDbEntity
  8
1
  6
Continuous
 62
     7
100
AcDbCircle
 10
445.7723346835155
 20
580.5846637518287
 30
0.0
 40
3.999999999999999
  0
CIRCLE
  5
E3
330
21
100
AcDbEntity
  8
1
  6
Continuous
 62
     7
100
AcDbCircle
 10
445.7723346835155
 20
560.5846637518286
 30
0.0
 40
3.999999999999999
  0
CIRCLE
  5
E4
330
21
100
AcDbEntity
  8
1
  6
Continuous
 62
     7
100
AcDbCircle
 10
445.7723346835155
 20
540.5846637518287
 30
0.0
 40
3.999999999999999
  0
CIRCLE
  5
E5
330
21
100
AcDbEntity
  8
1
  6
Continuous
 62
     7
100
AcDbCircle
 10
407.1213080146415
 20
570.5846637518286
 30
0.0
 40
3.999999999999999
  0
CIRCLE
  5
E6
330
21
100
AcDbEntity
  8
1
  6
Continuous
 62
     7
100
AcDbCircle
 10
407.1213080146415
 20
550.5846637518287
 30
0.0
 40
3.999999999999999
  0
CIRCLE
  5
E7
330
21
100
AcDbEntity
  8
1
  6
Continuous
 62
     7
100
AcDbCircle
 10
407.1213080146415
 20
509.0846637518286
 30
0.0
 40
3.999999999999999
  0
CIRCLE
  5
E8
330
21
100
AcDbEntity
  8
1
  6
Continuous
 62
     7
100
AcDbCircle
 10
445.7723346835155
 20
499.0846637518285
 30
0.0
 40
3.999999999999999
  0
CIRCLE
  5
E9
330
21
100
AcDbEntity
  8
1
  6
Continuous
 62
     7
100
AcDbCircle
 10
407.1213080146415
 20
464.0846637518286
 30
0.0
 40
3.999999999999999
  0
LINE
  5
EA
330
21
100
AcDbEntity
  8
1
  6
Continuous
 62
     7
100
AcDbLine
 10
412.2682869069083
 20
430.9999999999999
 30
0.0
 11
412.2682869069083
 21
639.0
 31
0.0
  0
LINE
  5
EB
330
21
100
AcDbEntity
  8
1
  6
Continuous
 62
     7
100
AcDbLine
 10
401.9743291223746
 20
430.9999999999999
 30
0.0
 11
401.9743291223746
 21
639.0
 31
0.0
  0
LINE
  5
EC
330
21
100
AcDbEntity
  8
1
  6
Continuous
 62
     7
100
AcDbLine
 10
440.6253557912487
 20
430.9999999999999
 30
0.0
 11
440.6253557912487
 21
639.0
 31
0.0
  0
LINE
  5
ED
330
21
100
AcDbEntity
  8
1
  6
Continuous
 62
     7
100
AcDbLine
 10
450.9193135757824
 20
430.9999999999999
 30
0.0
 11
450.9193135757824
 21
639.0
 31
0.0
  0
LINE
  5
EE
330
21
100
AcDbEntity
  8
1
  6
Continuous
 62
     7
100
AcDbLine
 10
375.9468213490785
 20
639.0
 30
0.0
 11
476.9468213490784
 21
639.0
 31
0.0
  0
LINE
  5
EF
330
21
100
AcDbEntity
  8
1
  6
Continuous
 62
     7
100
AcDbLine
 10
375.9468213490787
 20
430.9999999999999
 30
0.0
 11
476.9468213490787
 21
430.9999999999999
 31
0.0
  0
LINE
  5
F0
330
21
100
AcDbEntity
  8
1
  6
Continuous
 62
     7
100
AcDbLine
 10
442.0437541962054
 20
798.4723241345258
 30
0.0
 11
450.2662820355559
 21
801.878206682575
 31
0.0
  0
LINE
  5
F1
330
21
100
AcDbEntity
  8
1
  6
Continuous
 62
     7
100
AcDbLine
 10
410.8498885019517
 20
798.4723241345258
 30
0.0
 11
402.6273606626012
 21
801.878206682575
 31
0.0
  0
LINE
  5
F2
330
21
100
AcDbEntity
  8
1
  6
Continuous
 62
     7
100
AcDbLine
 10
421.9968213490785
 20
899.2550613328816
 30
0.0
 11
430.8968213490785
 21
899.2550613328816
 31
0.0
  0
LINE
  5
F3
330
21
100
AcDbEntity
  8
1
  6
Continuous
 62
     7
100
AcDbLine
 10
430.8968213490785
 20
898.0586148852898
 30
0.0
 11
430.8968213490785
 21
899.2550613328816
 31
0.0
  0
LINE
  5
F4
330
21
100
AcDbEntity
  8
1
  6
Continuous
 62
     7
100
AcDbLine
 10
421.9968213490785
 20
898.0586148852898
 30
0.0
 11
421.9968213490785
 21
899.2550613328816
 31
0.0
  0
LINE
  5
F5
330
21
100
AcDbEntity
  8
1
  6
Continuous
 62
     7
100
AcDbLine
 10
450.2662820355559
 20
801.878206682575
 30
0.0
 11
449.8084218023505
 21
802.983579067251
 31
0.0
  0
LINE
  5
F6
330
21
100
AcDbEntity
  8
1
  6
Continuous
 62
     7
100
AcDbLine
 10
442.0437541962054
 20
798.4723241345258
 30
0.0
 11
441.585893963
 21
799.5776965192017
 31
0.0
  0
LINE
  5
F7
330
21
100
AcDbEntity
  8
1
  6
Continuous
 62
     7
100
AcDbLine
 10
410.8498885019517
 20
798.4723241345258
 30
0.0
 11
411.3077487351571
 21
799.5776965192017
 31
0.0
  0
LINE
  5
F8
330
21
100
AcDbEntity
  8
1
  6
Continuous
 62
     7
100
AcDbLine
 10
402.6273606626012
 20
801.878206682575
 30
0.0
 11
403.0852208958067
 21
802.9835790672509
 31
0.0
  0
ARC
  5
F9
330
21
100
AcDbEntity
  8
1
  6
Continuous
 62
     7
100
AcDbCircle
 10
426.4468213490784
 20
847.7550613328817
 30
0.0
 40
50.5
100
AcDbArc
 50
95.05539292587068
 51
242.4446070741294
  0
ARC
  5
FA
330
21
100
AcDbEntity
  8
1
  6
Continuous
 62
     7
100
AcDbCircle
 10
426.4468213490784
 20
847.7550613328817
 30
0.0
 40
50.5
100
AcDbArc
 50
297.5553929258707
 51
84.9446070741294
  0
ARC
  5
FB
330
21
100
AcDbEntity
  8
1
  6
Continuous
 62
     7
100
AcDbCircle
 10
426.4468213490784
 20
847.7550613328817
 30
0.0
 40
50.5
100
AcDbArc
 50
252.5553929258705
 51
287.4446070741294
  0
LINE
  5
FD
102
{ACAD_REACTORS
330
FC
102
}
330
21
100
AcDbEntity
  8
1
  6
Continuous
 62
     7
100
AcDbLine
 10
598.8959555514907
 20
799.7276615975819
 30
0.0
 11
593.7598119569461
 21
787.3279140733365
 31
0.0
  0
LINE
  5
FE
102
{ACAD_REACTORS
330
FC
102
}
330
21
100
AcDbEntity
  8
1
  6
Continuous
 62
     7
100
AcDbLine
 10
595.3759745326228
 20
801.1856854748929
 30
0.0
 11
590.239830938078
 21
788.7859379506473
 31
0.0
  0
LINE
  5
FF
102
{ACAD_REACTORS
330
FC
102
}
330
21
100
AcDbEntity
  8
1
  6
Continuous
 62
     7
100
AcDbLine
 10
595.0022379365937
 20
801.6024970230708
 30
0.0
 11
599.4368596926477
 21
799.7656165477184
 31
0.0
  0
LINE
  5
100
102
{ACAD_REACTORS
330
FC
102
}
330
21
100
AcDbEntity
  8
1
  6
Continuous
 62
     7
100
AcDbLine
 10
599.8235646243578
 20
800.6992048384894
 30
0.0
 11
599.4368596926477
 21
799.7656165477184
 31
0.0
  0
LINE
  5
101
102
{ACAD_REACTORS
330
FC
102
}
330
21
100
AcDbEntity
  8
1
  6
Continuous
 62
     7
100
AcDbLine
 10
595.3893031087968
 20
802.5369550113262
 30
0.0
 11
595.0022379365937
 21
801.6024970230708
 31
0.0
  0
LINE
  5
102
102
{ACAD_REACTORS
330
FC
102
}
330
21
100
AcDbEntity
  8
1
  6
Continuous
 62
     7
100
AcDbLine
 10
595.0283954493913
 20
801.3296574451644
 30
0.0
 11
599.1858533456921
 21
799.6075819995215
 31
0.0
  0
LINE
  5
103
102
{ACAD_REACTORS
330
FC
102
}
330
21
100
AcDbEntity
  8
1
  6
Continuous
 62
     7
100
AcDbLine
 10
595.0283954493913
 20
801.3296574451644
 30
0.0
 11
595.0022379365937
 21
801.6024970230708
 31
0.0
  0
LINE
  5
104
102
{ACAD_REACTORS
330
FC
102
}
330
21
100
AcDbEntity
  8
1
  6
Continuous
 62
     7
100
AcDbLine
 10
599.1858533456921
 20
799.6075819995215
 30
0.0
 11
599.4368596926477
 21
799.7656165477184
 31
0.0
  0
LINE
  5
105
102
{ACAD_REACTORS
330
FC
102
}
330
21
100
AcDbEntity
  8
1
  6
Continuous
 62
     7
100
AcDbLine
 10
590.239830938078
 20
788.7859379506473
 30
0.0
 11
593.7598119569461
 21
787.3279140733365
 31
0.0
  0
LINE
  5
106
102
{ACAD_REACTORS
330
FC
102
}
330
21
100
AcDbEntity
  8
1
  6
Continuous
 62
     7
100
AcDbLine
 10
590.6609536994976
 20
789.8026182326902
 30
0.0
 11
594.1809347183656
 21
788.3445943553793
 31
0.0
  0
LINE
  5
107
330
21
100
AcDbEntity
  8
1
  6
Continuous
 62
     7
100
AcDbLine
 10
612.2775987458088
 20
909.7550613328817
 30
0.0
 11
621.1775987458088
 21
909.7550613328817
 31
0.0
  0
LINE
  5
108
330
21
100
AcDbEntity
  8
1
  6
Continuous
 62
     7
100
AcDbLine
 10
621.1775987458088
 20
908.5586148852897
 30
0.0
 11
621.1775987458088
 21
908.5925292289076
 31
0.0
  0
LINE
  5
109
330
21
100
AcDbEntity
  8
1
  6
Continuous
 62
     7
100
AcDbLine
 10
612.2775987458088
 20
908.5586148852897
 30
0.0
 11
612.2775987458088
 21
908.5925292289076
 31
0.0
  0
LINE
  5
10A
330
21
100
AcDbEntity
  8
1
  6
Continuous
 62
     7
100
AcDbLine
 10
636.3427076327694
 20
788.7715890431572
 30
0.0
 11
644.5652354721197
 21
792.1774715912064
 31
0.0
  0
LINE
  5
10B
330
21
100
AcDbEntity
  8
1
  6
Continuous
 62
     7
100
AcDbLine
 10
644.5652354721197
 20
792.1774715912064
 30
0.0
 11
644.1203536963364
 21
793.2515112079553
 31
0.0
  0
LINE
  5
10C
330
21
100
AcDbEntity
  8
1
  6
Continuous
 62
     7
100
AcDbLine
 10
636.3427076327694
 20
788.7715890431572
 30
0.0
 11
635.8978258569861
 21
789.8456286599059
 31
0.0
  0
LINE
  5
10D
330
21
100
AcDbEntity
  8
1
  6
Continuous
 62
     7
100
AcDbLine
 10
597.1124898588486
 20
788.7715890431572
 30
0.0
 11
588.8899620194982
 21
792.1774715912064
 31
0.0
  0
LINE
  5
10E
330
21
100
AcDbEntity
  8
1
  6
Continuous
 62
     7
100
AcDbLine
 10
597.1124898588486
 20
788.7715890431572
 30
0.0
 11
597.5573716346319
 21
789.8456286599058
 31
0.0
  0
LINE
  5
10F
330
21
100
AcDbEntity
  8
1
  6
Continuous
 62
     7
100
AcDbLine
 10
588.8899620194982
 20
792.1774715912064
 30
0.0
 11
589.3348437952815
 21
793.2515112079551
 31
0.0
  0
ARC
  5
110
330
21
100
AcDbEntity
  8
1
  6
Continuous
 62
     7
100
AcDbCircle
 10
616.7275987458089
 20
847.7550613328814
 30
0.0
 40
60.99999999999999
100
AcDbArc
 50
94.18349032153294
 51
243.3165096784673
  0
LINE
  5
111
330
21
100
AcDbEntity
  8
1
  6
Continuous
 62
     7
100
AcDbLine
 10
612.2775987458088
 20
908.5925292289076
 30
0.0
 11
612.2775987458088
 21
909.7550613328817
 31
0.0
  0
LINE
  5
112
330
21
100
AcDbEntity
  8
1
  6
Continuous
 62
     7
100
AcDbLine
 10
621.1775987458088
 20
908.5925292289076
 30
0.0
 11
621.1775987458088
 21
909.7550613328817
 31
0.0
  0
LINE
  5
113
330
21
100
AcDbEntity
  8
1
  6
Continuous
 62
     7
100
AcDbLine
 10
635.8978258569861
 20
789.8456286599059
 30
0.0
 11
635.8848473995639
 21
789.876961427833
 31
0.0
  0
ARC
  5
114
330
21
100
AcDbEntity
  8
1
  6
Continuous
 62
     7
100
AcDbCircle
 10
616.7275987458089
 20
847.7550613328814
 30
0.0
 40
60.99999999999999
100
AcDbArc
 50
296.683490321533
 51
85.81650967846728
  0
LINE
  5
115
330
21
100
AcDbEntity
  8
1
  6
Continuous
 62
     7
100
AcDbLine
 10
644.1203536963364
 20
793.2515112079553
 30
0.0
 11
644.1073752389144
 21
793.2828439758824
 31
0.0
  0
LINE
  5
116
330
21
100
AcDbEntity
  8
1
  6
Continuous
 62
     7
100
AcDbLine
 10
589.3348437952815
 20
793.2515112079551
 30
0.0
 11
589.3478222527037
 21
793.2828439758822
 31
0.0
  0
ARC
  5
117
330
21
100
AcDbEntity
  8
1
  6
Continuous
 62
     7
100
AcDbCircle
 10
616.7275987458089
 20
847.7550613328814
 30
0.0
 40
60.99999999999999
100
AcDbArc
 50
251.683490321533
 51
288.3165096784672
  0
LINE
  5
118
330
21
100
AcDbEntity
  8
1
  6
Continuous
 62
     7
100
AcDbLine
 10
597.5573716346319
 20
789.8456286599058
 30
0.0
 11
597.5703500920541
 21
789.876961427833
 31
0.0
  0
CIRCLE
  5
119
330
21
100
AcDbEntity
  8
1
  6
Continuous
 62
     7
100
AcDbCircle
 10
806.7484698605086
 20
847.7550613328814
 30
0.0
 40
50.0
  0
CIRCLE
  5
11A
330
21
100
AcDbEntity
  8
1
  6
Continuous
 62
     7
100
AcDbCircle
 10
795.7626576017093
 20
798.5217106338631
 30
0.0
 40
0.3776415005640337
  0
CIRCLE
  5
11B
330
21
100
AcDbEntity
  8
1
  6
Continuous
 62
     7
100
AcDbCircle
 10
817.6943777049451
 20
798.5786218145724
 30
0.0
 40
0.3776415005640337
  0
LINE
  5
11C
330
21
100
AcDbEntity
  8
1
  6
Continuous
 62
     7
100
AcDbLine
 10
826.0707350471916
 20
796.1289817672478
 30
0.0
 11
829.5907160660597
 21
797.5870056445589
 31
0.0
  0
LINE
  5
11D
330
21
100
AcDbEntity
  8
1
  6
Continuous
 62
     7
100
AcDbLine
 10
825.9581419507044
 20
796.4772930488958
 30
0.0
 11
829.4781229695725
 21
797.935316926207
 31
0.0
  0
LINE
  5
11E
330
21
100
AcDbEntity
  8
1
  6
Continuous
 62
     7
100
AcDbLine
 10
828.0983354991143
 20
801.1899310495
 30
0.0
 11
829.5907160660597
 21
797.5870056445589
 31
0.0
  0
LINE
  5
11F
330
21
100
AcDbEntity
  8
1
  6
Continuous
 62
     7
100
AcDbLine
 10
824.5783544802465
 20
799.731907172189
 30
0.0
 11
826.0707350471916
 21
796.1289817672478
 31
0.0
  0
LINE
  5
120
330
21
100
AcDbEntity
  8
1
  6
Continuous
 62
     7
100
AcDbLine
 10
823.9884603956587
 20
799.7495698233368
 30
0.0
 11
828.423082151713
 21
801.5864502986891
 31
0.0
  0
LINE
  5
121
330
21
100
AcDbEntity
  8
1
  6
Continuous
 62
     7
100
AcDbLine
 10
828.0387439000346
 20
802.5143249184297
 30
0.0
 11
828.423082151713
 21
801.5864502986891
 31
0.0
  0
LINE
  5
122
330
21
100
AcDbEntity
  8
1
  6
Continuous
 62
     7
100
AcDbLine
 10
823.6025320751155
 20
800.6812832088966
 30
0.0
 11
823.9884603956587
 21
799.7495698233368
 31
0.0
  0
LINE
  5
123
330
21
100
AcDbEntity
  8
1
  6
Continuous
 62
     7
100
AcDbLine
 10
824.1998832660508
 20
799.5751392623014
 30
0.0
 11
828.3573411623516
 21
801.2972147079443
 31
0.0
  0
LINE
  5
124
330
21
100
AcDbEntity
  8
1
  6
Continuous
 62
     7
100
AcDbLine
 10
824.1998832660508
 20
799.5751392623014
 30
0.0
 11
823.9884603956587
 21
799.7495698233368
 31
0.0
  0
LINE
  5
125
330
21
100
AcDbEntity
  8
1
  6
Continuous
 62
     7
100
AcDbLine
 10
828.3573411623516
 20
801.2972147079443
 30
0.0
 11
828.423082151713
 21
801.5864502986891
 31
0.0
  0
CIRCLE
  5
126
330
21
100
AcDbEntity
  8
1
  6
Continuous
 62
     7
100
AcDbCircle
 10
806.7484698605086
 20
847.7550613328814
 30
0.0
 40
1.25
  0
CIRCLE
  5
127
330
21
100
AcDbEntity
  8
1
  6
Continuous
 62
     7
100
AcDbCircle
 10
806.7484698605086
 20
847.7550613328814
 30
0.0
 40
1.074999999999999
  0
LINE
  5
129
102
{ACAD_REACTORS
330
128
102
}
330
21
100
AcDbEntity
  8
1
  6
Continuous
 62
     7
100
AcDbLine
 10
788.9168266661904
 20
799.7276615975819
 30
0.0
 11
783.7806830716457
 21
787.3279140733365
 31
0.0
  0
LINE
  5
12A
102
{ACAD_REACTORS
330
128
102
}
330
21
100
AcDbEntity
  8
1
  6
Continuous
 62
     7
100
AcDbLine
 10
785.3968456473225
 20
801.1856854748929
 30
0.0
 11
780.2607020527777
 21
788.7859379506473
 31
0.0
  0
LINE
  5
12B
102
{ACAD_REACTORS
330
128
102
}
330
21
100
AcDbEntity
  8
1
  6
Continuous
 62
     7
100
AcDbLine
 10
785.0231090512934
 20
801.6024970230708
 30
0.0
 11
789.4577308073476
 21
799.7656165477184
 31
0.0
  0
LINE
  5
12C
102
{ACAD_REACTORS
330
128
102
}
330
21
100
AcDbEntity
  8
1
  6
Continuous
 62
     7
100
AcDbLine
 10
789.8444357390576
 20
800.6992048384894
 30
0.0
 11
789.4577308073476
 21
799.7656165477184
 31
0.0
  0
LINE
  5
12D
102
{ACAD_REACTORS
330
128
102
}
330
21
100
AcDbEntity
  8
1
  6
Continuous
 62
     7
100
AcDbLine
 10
785.4101742234965
 20
802.5369550113262
 30
0.0
 11
785.0231090512934
 21
801.6024970230708
 31
0.0
  0
LINE
  5
12E
102
{ACAD_REACTORS
330
128
102
}
330
21
100
AcDbEntity
  8
1
  6
Continuous
 62
     7
100
AcDbLine
 10
785.0492665640911
 20
801.3296574451644
 30
0.0
 11
789.2067244603919
 21
799.6075819995215
 31
0.0
  0
LINE
  5
12F
102
{ACAD_REACTORS
330
128
102
}
330
21
100
AcDbEntity
  8
1
  6
Continuous
 62
     7
100
AcDbLine
 10
785.0492665640911
 20
801.3296574451644
 30
0.0
 11
785.0231090512934
 21
801.6024970230708
 31
0.0
  0
LINE
  5
130
102
{ACAD_REACTORS
330
128
102
}
330
21
100
AcDbEntity
  8
1
  6
Continuous
 62
     7
100
AcDbLine
 10
789.2067244603919
 20
799.6075819995215
 30
0.0
 11
789.4577308073476
 21
799.7656165477184
 31
0.0
  0
LINE
  5
131
102
{ACAD_REACTORS
330
128
102
}
330
21
100
AcDbEntity
  8
1
  6
Continuous
 62
     7
100
AcDbLine
 10
780.2607020527777
 20
788.7859379506473
 30
0.0
 11
783.7806830716457
 21
787.3279140733365
 31
0.0
  0
LINE
  5
132
102
{ACAD_REACTORS
330
128
102
}
330
21
100
AcDbEntity
  8
1
  6
Continuous
 62
     7
100
AcDbLine
 10
780.6818248141974
 20
789.8026182326902
 30
0.0
 11
784.2018058330653
 21
788.3445943553793
 31
0.0
  0
LINE
  5
133
330
21
100
AcDbEntity
  8
1
  6
Continuous
 62
     7
100
AcDbLine
 10
802.2984698605085
 20
909.7550613328817
 30
0.0
 11
811.1984698605086
 21
909.7550613328817
 31
0.0
  0
LINE
  5
134
330
21
100
AcDbEntity
  8
1
  6
Continuous
 62
     7
100
AcDbLine
 10
811.1984698605086
 20
908.5586148852897
 30
0.0
 11
811.1984698605086
 21
908.5925292289076
 31
0.0
  0
LINE
  5
135
330
21
100
AcDbEntity
  8
1
  6
Continuous
 62
     7
100
AcDbLine
 10
802.2984698605085
 20
908.5586148852897
 30
0.0
 11
802.2984698605085
 21
908.5925292289076
 31
0.0
  0
LINE
  5
136
330
21
100
AcDbEntity
  8
1
  6
Continuous
 62
     7
100
AcDbLine
 10
826.363578747469
 20
788.7715890431572
 30
0.0
 11
834.5861065868195
 21
792.1774715912064
 31
0.0
  0
LINE
  5
137
330
21
100
AcDbEntity
  8
1
  6
Continuous
 62
     7
100
AcDbLine
 10
834.5861065868195
 20
792.1774715912064
 30
0.0
 11
834.1412248110362
 21
793.2515112079553
 31
0.0
  0
LINE
  5
138
330
21
100
AcDbEntity
  8
1
  6
Continuous
 62
     7
100
AcDbLine
 10
826.363578747469
 20
788.7715890431572
 30
0.0
 11
825.9186969716857
 21
789.8456286599059
 31
0.0
  0
LINE
  5
139
330
21
100
AcDbEntity
  8
1
  6
Continuous
 62
     7
100
AcDbLine
 10
787.1333609735485
 20
788.7715890431572
 30
0.0
 11
778.9108331341981
 21
792.1774715912064
 31
0.0
  0
LINE
  5
13A
330
21
100
AcDbEntity
  8
1
  6
Continuous
 62
     7
100
AcDbLine
 10
787.1333609735485
 20
788.7715890431572
 30
0.0
 11
787.5782427493318
 21
789.8456286599058
 31
0.0
  0
LINE
  5
13B
330
21
100
AcDbEntity
  8
1
  6
Continuous
 62
     7
100
AcDbLine
 10
778.9108331341981
 20
792.1774715912064
 30
0.0
 11
779.3557149099814
 21
793.2515112079551
 31
0.0
  0
ARC
  5
13C
330
21
100
AcDbEntity
  8
1
  6
Continuous
 62
     7
100
AcDbCircle
 10
806.7484698605086
 20
847.7550613328814
 30
0.0
 40
60.99999999999999
100
AcDbArc
 50
94.18349032153294
 51
243.3165096784673
  0
LINE
  5
13D
330
21
100
AcDbEntity
  8
1
  6
Continuous
 62
     7
100
AcDbLine
 10
802.2984698605085
 20
908.5925292289076
 30
0.0
 11
802.2984698605085
 21
909.7550613328817
 31
0.0
  0
LINE
  5
13E
330
21
100
AcDbEntity
  8
1
  6
Continuous
 62
     7
100
AcDbLine
 10
811.1984698605086
 20
908.5925292289076
 30
0.0
 11
811.1984698605086
 21
909.7550613328817
 31
0.0
  0
LINE
  5
13F
330
21
100
AcDbEntity
  8
1
  6
Continuous
 62
     7
100
AcDbLine
 10
825.9186969716857
 20
789.8456286599059
 30
0.0
 11
825.9057185142637
 21
789.876961427833
 31
0.0
  0
ARC
  5
140
330
21
100
AcDbEntity
  8
1
  6
Continuous
 62
     7
100
AcDbCircle
 10
806.7484698605086
 20
847.7550613328814
 30
0.0
 40
60.99999999999999
100
AcDbArc
 50
296.683490321533
 51
85.81650967846728
  0
LINE
  5
141
330
21
100
AcDbEntity
  8
1
  6
Continuous
 62
     7
100
AcDbLine
 10
834.1412248110362
 20
793.2515112079553
 30
0.0
 11
834.1282463536142
 21
793.2828439758824
 31
0.0
  0
LINE
  5
142
330
21
100
AcDbEntity
  8
1
  6
Continuous
 62
     7
100
AcDbLine
 10
779.3557149099814
 20
793.2515112079551
 30
0.0
 11
779.3686933674035
 21
793.2828439758822
 31
0.0
  0
ARC
  5
143
330
21
100
AcDbEntity
  8
1
  6
Continuous
 62
     7
100
AcDbCircle
 10
806.7484698605086
 20
847.7550613328814
 30
0.0
 40
60.99999999999999
100
AcDbArc
 50
251.683490321533
 51
288.3165096784672
  0
LINE
  5
144
330
21
100
AcDbEntity
  8
1
  6
Continuous
 62
     7
100
AcDbLine
 10
787.5782427493318
 20
789.8456286599058
 30
0.0
 11
787.5912212067539
 21
789.876961427833
 31
0.0
  0
CIRCLE
  5
145
330
21
100
AcDbEntity
  8
1
  6
Continuous
 62
     7
100
AcDbCircle
 10
597.402085411372
 20
577.5569003285474
 30
0.0
 40
3.499999999999999
  0
CIRCLE
  5
146
330
21
100
AcDbEntity
  8
1
  6
Continuous
 62
     7
100
AcDbCircle
 10
636.0531120802461
 20
462.4406811529802
 30
0.0
 40
3.499999999999999
  0
CIRCLE
  5
147
330
21
100
AcDbEntity
  8
1
  6
Continuous
 62
     7
100
AcDbCircle
 10
636.0531120802461
 20
474.985841597243
 30
0.0
 40
3.499999999999999
  0
CIRCLE
  5
148
330
21
100
AcDbEntity
  8
1
  6
Continuous
 62
     7
100
AcDbCircle
 10
597.402085411372
 20
462.5357846689218
 30
0.0
 40
3.499999999999999
  0
CIRCLE
  5
149
330
21
100
AcDbEntity
  8
1
  6
Continuous
 62
     7
100
AcDbCircle
 10
597.402085411372
 20
475.0247416380804
 30
0.0
 40
3.999999999999999
  0
CIRCLE
  5
14A
330
21
100
AcDbEntity
  8
1
  6
Continuous
 62
     7
100
AcDbCircle
 10
636.0531120802461
 20
527.5247416380803
 30
0.0
 40
3.999999999999999
  0
CIRCLE
  5
14B
330
21
100
AcDbEntity
  8
1
  6
Continuous
 62
     7
100
AcDbCircle
 10
636.053112080246
 20
547.5247416380804
 30
0.0
 40
3.999999999999999
  0
CIRCLE
  5
14C
330
21
100
AcDbEntity
  8
1
  6
Continuous
 62
     7
100
AcDbCircle
 10
636.0531120802461
 20
507.5247416380803
 30
0.0
 40
3.999999999999999
  0
CIRCLE
  5
14D
330
21
100
AcDbEntity
  8
1
  6
Continuous
 62
     7
100
AcDbCircle
 10
597.402085411372
 20
517.5247416380804
 30
0.0
 40
3.999999999999999
  0
CIRCLE
  5
14E
330
21
100
AcDbEntity
  8
1
  6
Continuous
 62
     7
100
AcDbCircle
 10
597.402085411372
 20
537.5247416380805
 30
0.0
 40
3.999999999999999
  0
CIRCLE
  5
14F
330
21
100
AcDbEntity
  8
1
  6
Continuous
 62
     7
100
AcDbCircle
 10
597.402085411372
 20
557.5247416380803
 30
0.0
 40
3.999999999999999
  0
CIRCLE
  5
150
330
21
100
AcDbEntity
  8
1
  6
Continuous
 62
     7
100
AcDbCircle
 10
636.053112080246
 20
567.5247416380804
 30
0.0
 40
3.999999999999999
  0
LINE
  5
151
330
21
100
AcDbEntity
  8
1
  6
Continuous
 62
     7
100
AcDbLine
 10
602.5490643036389
 20
432.9999999999999
 30
0.0
 11
602.5490643036387
 21
641.0
 31
0.0
  0
LINE
  5
152
330
21
100
AcDbEntity
  8
1
  6
Continuous
 62
     7
100
AcDbLine
 10
592.2551065191052
 20
432.9999999999999
 30
0.0
 11
592.2551065191051
 21
641.0
 31
0.0
  0
LINE
  5
153
330
21
100
AcDbEntity
  8
1
  6
Continuous
 62
     7
100
AcDbLine
 10
630.9061331879794
 20
432.9999999999999
 30
0.0
 11
630.9061331879791
 21
641.0
 31
0.0
  0
LINE
  5
154
330
21
100
AcDbEntity
  8
1
  6
Continuous
 62
     7
100
AcDbLine
 10
641.2000909725129
 20
432.9999999999999
 30
0.0
 11
641.2000909725128
 21
641.0
 31
0.0
  0
LINE
  5
155
330
21
100
AcDbEntity
  8
1
  6
Continuous
 62
     7
100
AcDbLine
 10
555.7275987458089
 20
641.0
 30
0.0
 11
677.7275987458089
 21
641.0
 31
0.0
  0
LINE
  5
156
330
21
100
AcDbEntity
  8
1
  6
Continuous
 62
     7
100
AcDbLine
 10
555.7275987458091
 20
432.9999999999999
 30
0.0
 11
677.7275987458092
 21
432.9999999999999
 31
0.0
  0
CIRCLE
  5
157
330
21
100
AcDbEntity
  8
1
  6
Continuous
 62
     7
100
AcDbCircle
 10
787.4234698605089
 20
459.9670501732039
 30
0.0
 40
3.499999999999999
  0
CIRCLE
  5
158
330
21
100
AcDbEntity
  8
1
  6
Continuous
 62
     7
100
AcDbCircle
 10
826.0734698605089
 20
472.3903960058865
 30
0.0
 40
3.499999999999999
  0
CIRCLE
  5
159
330
21
100
AcDbEntity
  8
1
  6
Continuous
 62
     7
100
AcDbCircle
 10
826.0734698605089
 20
459.9670501732039
 30
0.0
 40
3.499999999999999
  0
CIRCLE
  5
15A
330
21
100
AcDbEntity
  8
1
  6
Continuous
 62
     7
100
AcDbCircle
 10
787.4234698605087
 20
624.9533791268632
 30
0.0
 40
3.499999999999999
  0
CIRCLE
  5
15B
330
21
100
AcDbEntity
  8
1
  6
Continuous
 62
     7
100
AcDbCircle
 10
826.0734698605087
 20
614.9670501732039
 30
0.0
 40
3.999999999999999
  0
CIRCLE
  5
15C
330
21
100
AcDbEntity
  8
1
  6
Continuous
 62
     7
100
AcDbCircle
 10
826.0734698605087
 20
594.9670501732039
 30
0.0
 40
3.999999999999999
  0
CIRCLE
  5
15D
330
21
100
AcDbEntity
  8
1
  6
Continuous
 62
     7
100
AcDbCircle
 10
826.0734698605087
 20
574.9670501732039
 30
0.0
 40
3.999999999999999
  0
CIRCLE
  5
15E
330
21
100
AcDbEntity
  8
1
  6
Continuous
 62
     7
100
AcDbCircle
 10
826.0734698605087
 20
559.0170501732038
 30
0.0
 40
3.999999999999999
  0
CIRCLE
  5
15F
330
21
100
AcDbEntity
  8
1
  6
Continuous
 62
     7
100
AcDbCircle
 10
826.0734698605087
 20
534.9670501732039
 30
0.0
 40
3.999999999999999
  0
CIRCLE
  5
160
330
21
100
AcDbEntity
  8
1
  6
Continuous
 62
     7
100
AcDbCircle
 10
787.4234698605087
 20
604.9670501732038
 30
0.0
 40
3.999999999999999
  0
CIRCLE
  5
161
330
21
100
AcDbEntity
  8
1
  6
Continuous
 62
     7
100
AcDbCircle
 10
787.4234698605087
 20
584.9670501732037
 30
0.0
 40
3.999999999999999
  0
CIRCLE
  5
162
330
21
100
AcDbEntity
  8
1
  6
Continuous
 62
     7
100
AcDbCircle
 10
787.4234698605087
 20
544.9670501732038
 30
0.0
 40
3.999999999999999
  0
CIRCLE
  5
163
330
21
100
AcDbEntity
  8
1
  6
Continuous
 62
     7
100
AcDbCircle
 10
787.4234698605089
 20
472.4670501732038
 30
0.0
 40
3.999999999999999
  0
LINE
  5
164
330
21
100
AcDbEntity
  8
1
  6
Continuous
 62
     7
100
AcDbLine
 10
831.2204487527758
 20
430.9999999999999
 30
0.0
 11
831.2204487527754
 21
687.9999999999999
 31
0.0
  0
LINE
  5
165
330
21
100
AcDbEntity
  8
1
  6
Continuous
 62
     7
100
AcDbLine
 10
820.9264909682421
 20
430.9999999999999
 30
0.0
 11
820.9264909682419
 21
687.9999999999999
 31
0.0
  0
LINE
  5
166
330
21
100
AcDbEntity
  8
1
  6
Continuous
 62
     7
100
AcDbLine
 10
792.5704487527757
 20
430.9999999999999
 30
0.0
 11
792.5704487527753
 21
687.9999999999999
 31
0.0
  0
LINE
  5
167
330
21
100
AcDbEntity
  8
1
  6
Continuous
 62
     7
100
AcDbLine
 10
782.2764909682421
 20
430.9999999999999
 30
0.0
 11
782.2764909682417
 21
687.9999999999999
 31
0.0
  0
LINE
  5
168
330
21
100
AcDbEntity
  8
1
  6
Continuous
 62
     7
100
AcDbLine
 10
745.7484698605087
 20
687.9999999999999
 30
0.0
 11
867.7484698605088
 21
687.9999999999999
 31
0.0
  0
LINE
  5
169
330
21
100
AcDbEntity
  8
1
  6
Continuous
 62
     7
100
AcDbLine
 10
745.748469860509
 20
430.9999999999999
 30
0.0
 11
867.7484698605089
 21
430.9999999999999
 31
0.0
  0
ENDSEC
  0
SECTION
  2
OBJECTS
  0
DICTIONARY
  5
C
330
0
100
AcDbDictionary
281
     1
  3
ACAD_COLOR
350
1C
  3
ACAD_GROUP
350
D
  3
ACAD_LAYOUT
350
1A
  3
ACAD_MATERIAL
350
1B
  3
ACAD_MLINESTYLE
350
17
  3
ACAD_PLOTSETTINGS
350
19
  3
ACAD_PLOTSTYLENAME
350
E
  3
ACDBHEADERROUNDTRIPXREC
350
16E
  3
AcDbVariableDictionary
350
16A
  0
DICTIONARY
  5
1C
102
{ACAD_REACTORS
330
C
102
}
330
C
100
AcDbDictionary
281
     1
  0
DICTIONARY
  5
D
102
{ACAD_REACTORS
330
C
102
}
330
C
100
AcDbDictionary
281
     1
  3
*A1
350
60
  3
*A2
350
91
  3
*A3
350
C6
  3
*A4
350
FC
  3
*A5
350
128
  0
DICTIONARY
  5
1A
102
{ACAD_REACTORS
330
C
102
}
330
C
100
AcDbDictionary
281
     1
  3
Layout1
350
20
  3
Layout2
350
28
  3
Model
350
24
  0
DICTIONARY
  5
1B
102
{ACAD_REACTORS
330
C
102
}
330
C
100
AcDbDictionary
281
     1
  0
DICTIONARY
  5
17
102
{ACAD_REACTORS
330
C
102
}
330
C
100
AcDbDictionary
281
     1
  3
Standard
350
18
  0
DICTIONARY
  5
19
102
{ACAD_REACTORS
330
C
102
}
330
C
100
AcDbDictionary
281
     1
  0
ACDBDICTIONARYWDFLT
  5
E
102
{ACAD_REACTORS
330
C
102
}
330
C
100
AcDbDictionary
281
     1
  3
Normal
350
F
100
AcDbDictionaryWithDefault
340
F
  0
DICTIONARY
  5
16E
102
{ACAD_REACTORS
330
C
102
}
330
C
100
AcDbDictionary
281
     1
  0
DICTIONARY
  5
16A
102
{ACAD_REACTORS
330
C
102
}
330
C
100
AcDbDictionary
281
     1
  3
DIMASSOC
350
16C
  3
HIDETEXT
350
16B
  3
PROJECTNAME
350
16D
  0
GROUP
  5
60
102
{ACAD_REACTORS
330
D
102
}
330
D
100
AcDbGroup
300

 70
     0
 71
     1
340
61
340
62
340
63
340
64
340
65
340
66
340
67
340
68
340
69
340
6A
340
6B
340
6C
340
6D
340
6E
340
6F
340
70
340
71
340
72
340
73
340
74
340
75
340
76
340
77
340
78
340
79
  0
GROUP
  5
91
102
{ACAD_REACTORS
330
D
102
}
330
D
100
AcDbGroup
300

 70
     0
 71
     1
340
92
340
93
340
94
340
95
340
96
340
97
340
98
340
99
340
9A
340
9B
340
9C
340
9D
340
9E
340
9F
340
A0
340
A1
340
A2
340
A3
340
A4
340
A5
340
A6
340
A7
340
A8
340
A9
340
AA
  0
GROUP
  5
C6
102
{ACAD_REACTORS
330
D
102
}
330
D
100
AcDbGroup
300

 70
     0
 71
     1
340
C7
340
C8
340
C9
340
CA
340
CB
340
CC
340
CD
340
CE
340
CF
340
D0
340
D1
340
D2
  0
GROUP
  5
FC
102
{ACAD_REACTORS
330
D
102
}
330
D
100
AcDbGroup
300

 70
     0
 71
     1
340
FD
340
FE
340
FF
340
100
340
101
340
102
340
103
340
104
340
105
340
106
  0
GROUP
  5
128
102
{ACAD_REACTORS
330
D
102
}
330
D
100
AcDbGroup
300

 70
     0
 71
     1
340
129
340
12A
340
12B
340
12C
340
12D
340
12E
340
12F
340
130
340
131
340
132
  0
LAYOUT
  5
20
102
{ACAD_XDICTIONARY
360
16F
102
}
102
{ACAD_REACTORS
330
1A
102
}
330
1A
100
AcDbPlotSettings
  1

  2

  4

  6

 40
0.0
 41
0.0
 42
0.0
 43
0.0
 44
0.0
 45
0.0
 46
0.0
 47
0.0
 48
0.0
 49
0.0
140
0.0
141
0.0
142
1.0
143
1.0
 70
   688
 72
     0
 73
     0
 74
     5
  7

 75
    16
147
1.0
148
0.0
149
0.0
100
AcDbLayout
  1
Layout1
 70
     1
 71
     1
 10
0.0
 20
0.0
 11
12.0
 21
9.0
 12
0.0
 22
0.0
 32
0.0
 14
0.0
 24
0.0
 34
0.0
 15
0.0
 25
0.0
 35
0.0
146
0.0
 13
0.0
 23
0.0
 33
0.0
 16
1.0
 26
0.0
 36
0.0
 17
0.0
 27
1.0
 37
0.0
 76
     0
330
1D
  0
LAYOUT
  5
28
102
{ACAD_XDICTIONARY
360
173
102
}
102
{ACAD_REACTORS
330
1A
102
}
330
1A
100
AcDbPlotSettings
  1

  2

  4

  6

 40
0.0
 41
0.0
 42
0.0
 43
0.0
 44
0.0
 45
0.0
 46
0.0
 47
0.0
 48
0.0
 49
0.0
140
0.0
141
0.0
142
1.0
143
1.0
 70
   688
 72
     0
 73
     0
 74
     5
  7

 75
    16
147
1.0
148
0.0
149
0.0
100
AcDbLayout
  1
Layout2
 70
     1
 71
     2
 10
0.0
 20
0.0
 11
12.0
 21
9.0
 12
0.0
 22
0.0
 32
0.0
 14
0.0
 24
0.0
 34
0.0
 15
0.0
 25
0.0
 35
0.0
146
0.0
 13
0.0
 23
0.0
 33
0.0
 16
1.0
 26
0.0
 36
0.0
 17
0.0
 27
1.0
 37
0.0
 76
     0
330
25
  0
LAYOUT
  5
24
102
{ACAD_XDICTIONARY
360
171
102
}
102
{ACAD_REACTORS
330
1A
102
}
330
1A
100
AcDbPlotSettings
  1

  2

  4

  6

 40
0.0
 41
0.0
 42
0.0
 43
0.0
 44
0.0
 45
0.0
 46
0.0
 47
0.0
 48
0.0
 49
0.0
140
0.0
141
0.0
142
1.0
143
1.0
 70
  1712
 72
     0
 73
     0
 74
     0
  7

 75
     0
147
1.0
148
0.0
149
0.0
100
AcDbLayout
  1
Model
 70
     1
 71
     0
 10
0.0
 20
0.0
 11
12.0
 21
9.0
 12
0.0
 22
0.0
 32
0.0
 14
0.0
 24
0.0
 34
0.0
 15
0.0
 25
0.0
 35
0.0
146
0.0
 13
0.0
 23
0.0
 33
0.0
 16
1.0
 26
0.0
 36
0.0
 17
0.0
 27
1.0
 37
0.0
 76
     0
330
21
  0
MLINESTYLE
  5
18
102
{ACAD_REACTORS
330
17
102
}
330
17
100
AcDbMlineStyle
  2
STANDARD
 70
     0
  3

 62
   256
 51
90.0
 52
90.0
 71
     2
 49
0.5
 62
   256
  6
BYLAYER
 49
-0.5
 62
   256
  6
BYLAYER
  0
ACDBPLACEHOLDER
  5
F
102
{ACAD_REACTORS
330
E
102
}
330
E
  0
DICTIONARYVAR
  5
16C
102
{ACAD_REACTORS
330
16A
102
}
330
16A
100
DictionaryVariables
280
     0
  1
2
  0
DICTIONARYVAR
  5
16B
102
{ACAD_REACTORS
330
16A
102
}
330
16A
100
DictionaryVariables
280
     0
  1
1
  0
DICTIONARYVAR
  5
16D
102
{ACAD_REACTORS
330
16A
102
}
330
16A
100
DictionaryVariables
280
     0
  1

  0
DICTIONARY
  5
16F
330
20
100
AcDbDictionary
280
     1
281
     1
  3
ACAD_XREC_ROUNDTRIP
360
170
  0
DICTIONARY
  5
173
330
28
100
AcDbDictionary
280
     1
281
     1
  3
ACAD_XREC_ROUNDTRIP
360
174
  0
DICTIONARY
  5
171
330
24
100
AcDbDictionary
280
     1
281
     1
  3
ACAD_XREC_ROUNDTRIP
360
172
  0
XRECORD
  5
170
102
{ACAD_REACTORS
330
16F
102
}
330
16F
100
AcDbXrecord
280
     1
102
SHADEPLOT
 70
     0
102
SHADEPLOTRESLEVEL
 70
     2
102
SHADEPLOTCUSTOMDPI
 70
   300
  0
XRECORD
  5
174
102
{ACAD_REACTORS
330
173
102
}
330
173
100
AcDbXrecord
280
     1
102
SHADEPLOT
 70
     0
102
SHADEPLOTRESLEVEL
 70
     2
102
SHADEPLOTCUSTOMDPI
 70
   300
  0
XRECORD
  5
172
102
{ACAD_REACTORS
330
171
102
}
330
171
100
AcDbXrecord
280
     1
102
SHADEPLOT
 70
     0
102
SHADEPLOTRESLEVEL
 70
     2
102
SHADEPLOTCUSTOMDPI
 70
   300
  0
ENDSEC
  0
EOF
