  0
SECTION
  2
HEADER
  9
$ACADVER
  1
AC1015
  9
$ACADMAINTVER
 70
    18
  9
$DWGCODEPAGE
  3
ANSI_1252
  9
$INSBASE
 10
0.0
 20
0.0
 30
0.0
  9
$EXTMIN
 10
138.9987468691357
 20
182.9980934240395
 30
-0.00000001
  9
$EXTMAX
 10
937.001253130864
 20
1394.757624098834
 30
0.00000001
  9
$LIMMIN
 10
0.0
 20
0.0
  9
$LIMMAX
 10
413.4999999999999
 20
584.6666666666666
  9
$ORTHOMODE
 70
     0
  9
$REGENMODE
 70
     1
  9
$FILLMODE
 70
     1
  9
$QTEXTMODE
 70
     0
  9
$MIRRTEXT
 70
     0
  9
$LTSCALE
 40
1.0
  9
$ATTMODE
 70
     1
  9
$TEXTSIZE
 40
35.0
  9
$TRACEWID
 40
0.05
  9
$TEXTSTYLE
  7
Standard
  9
$CLAYER
  8
0
  9
$CELTYPE
  6
ByLayer
  9
$CECOLOR
 62
     7
  9
$CELTSCALE
 40
1.0
  9
$DISPSILH
 70
     0
  9
$DIMSCALE
 40
1.0
  9
$DIMASZ
 40
0.18
  9
$DIMEXO
 40
0.0625
  9
$DIMDLI
 40
0.38
  9
$DIMRND
 40
0.0
  9
$DIMDLE
 40
0.0
  9
$DIMEXE
 40
0.18
  9
$DIMTP
 40
0.0
  9
$DIMTM
 40
0.0
  9
$DIMTXT
 40
7.874015748031496
  9
$DIMCEN
 40
0.09
  9
$DIMTSZ
 40
0.0
  9
$DIMTOL
 70
     0
  9
$DIMLIM
 70
     0
  9
$DIMTIH
 70
     1
  9
$DIMTOH
 70
     1
  9
$DIMSE1
 70
     0
  9
$DIMSE2
 70
     0
  9
$DIMTAD
 70
     0
  9
$DIMZIN
 70
     0
  9
$DIMBLK
  1

  9
$DIMASO
 70
     1
  9
$DIMSHO
 70
     1
  9
$DIMPOST
  1

  9
$DIMAPOST
  1

  9
$DIMALT
 70
     0
  9
$DIMALTD
 70
     2
  9
$DIMALTF
 40
25.4
  9
$DIMLFAC
 40
1.0
  9
$DIMTOFL
 70
     0
  9
$DIMTVP
 40
0.0
  9
$DIMTIX
 70
     0
  9
$DIMSOXD
 70
     0
  9
$DIMSAH
 70
     0
  9
$DIMBLK1
  1

  9
$DIMBLK2
  1

  9
$DIMSTYLE
  2
Standard
  9
$DIMCLRD
 70
     0
  9
$DIMCLRE
 70
     0
  9
$DIMCLRT
 70
     0
  9
$DIMTFAC
 40
1.0
  9
$DIMGAP
 40
0.09
  9
$DIMJUST
 70
     0
  9
$DIMSD1
 70
     0
  9
$DIMSD2
 70
     0
  9
$DIMTOLJ
 70
     1
  9
$DIMTZIN
 70
     0
  9
$DIMALTZ
 70
     0
  9
$DIMALTTZ
 70
     0
  9
$DIMUPT
 70
     0
  9
$DIMDEC
 70
     2
  9
$DIMTDEC
 70
     4
  9
$DIMALTU
 70
     2
  9
$DIMALTTD
 70
     2
  9
$DIMTXSTY
  7
Standard
  9
$DIMAUNIT
 70
     1
  9
$DIMADEC
 70
     0
  9
$DIMALTRND
 40
0.0
  9
$DIMAZIN
 70
     0
  9
$DIMDSEP
 70
    46
  9
$DIMATFIT
 70
     3
  9
$DIMFRAC
 70
     0
  9
$DIMLDRBLK
  1

  9
$DIMLUNIT
 70
     4
  9
$DIMLWD
 70
    -2
  9
$DIMLWE
 70
    -2
  9
$DIMTMOVE
 70
     0
  9
$LUNITS
 70
     2
  9
$LUPREC
 70
     2
  9
$SKETCHINC
 40
0.1
  9
$FILLETRAD
 40
0.5
  9
$AUNITS
 70
     0
  9
$AUPREC
 70
     2
  9
$MENU
  1
.
  9
$ELEVATION
 40
0.0
  9
$PELEVATION
 40
0.0
  9
$THICKNESS
 40
0.0
  9
$LIMCHECK
 70
     0
  9
$CHAMFERA
 40
0.5
  9
$CHAMFERB
 40
0.5
  9
$CHAMFERC
 40
0.0
  9
$CHAMFERD
 40
0.0
  9
$SKPOLY
 70
     0
  9
$TDCREATE
 40
2457736.518439201
  9
$TDUCREATE
 40
2457736.476772535
  9
$TDUPDATE
 40
2457736.518439201
  9
$TDUUPDATE
 40
2457736.476772535
  9
$TDINDWG
 40
0.0000006713
  9
$TDUSRTIMER
 40
0.0000006713
  9
$USRTIMER
 70
     1
  9
$ANGBASE
 50
0.0
  9
$ANGDIR
 70
     0
  9
$PDMODE
 70
     0
  9
$PDSIZE
 40
0.0
  9
$PLINEWID
 40
0.0
  9
$SPLFRAME
 70
     0
  9
$SPLINETYPE
 70
     6
  9
$SPLINESEGS
 70
     8
  9
$HANDSEED
  5
32D
  9
$SURFTAB1
 70
     6
  9
$SURFTAB2
 70
     6
  9
$SURFTYPE
 70
     6
  9
$SURFU
 70
     6
  9
$SURFV
 70
     6
  9
$UCSBASE
  2

  9
$UCSNAME
  2

  9
$UCSORG
 10
0.0
 20
0.0
 30
0.0
  9
$UCSXDIR
 10
1.0
 20
0.0
 30
0.0
  9
$UCSYDIR
 10
0.0
 20
1.0
 30
0.0
  9
$UCSORTHOREF
  2

  9
$UCSORTHOVIEW
 70
     0
  9
$UCSORGTOP
 10
0.0
 20
0.0
 30
0.0
  9
$UCSORGBOTTOM
 10
0.0
 20
0.0
 30
0.0
  9
$UCSORGLEFT
 10
0.0
 20
0.0
 30
0.0
  9
$UCSORGRIGHT
 10
0.0
 20
0.0
 30
0.0
  9
$UCSORGFRONT
 10
0.0
 20
0.0
 30
0.0
  9
$UCSORGBACK
 10
0.0
 20
0.0
 30
0.0
  9
$PUCSBASE
  2

  9
$PUCSNAME
  2

  9
$PUCSORG
 10
0.0
 20
0.0
 30
0.0
  9
$PUCSXDIR
 10
1.0
 20
0.0
 30
0.0
  9
$PUCSYDIR
 10
0.0
 20
1.0
 30
0.0
  9
$PUCSORTHOREF
  2

  9
$PUCSORTHOVIEW
 70
     0
  9
$PUCSORGTOP
 10
0.0
 20
0.0
 30
0.0
  9
$PUCSORGBOTTOM
 10
0.0
 20
0.0
 30
0.0
  9
$PUCSORGLEFT
 10
0.0
 20
0.0
 30
0.0
  9
$PUCSORGRIGHT
 10
0.0
 20
0.0
 30
0.0
  9
$PUCSORGFRONT
 10
0.0
 20
0.0
 30
0.0
  9
$PUCSORGBACK
 10
0.0
 20
0.0
 30
0.0
  9
$USERI1
 70
     0
  9
$USERI2
 70
     0
  9
$USERI3
 70
     0
  9
$USERI4
 70
     0
  9
$USERI5
 70
     0
  9
$USERR1
 40
0.0
  9
$USERR2
 40
0.0
  9
$USERR3
 40
0.0
  9
$USERR4
 40
0.0
  9
$USERR5
 40
0.0
  9
$WORLDVIEW
 70
     1
  9
$SHADEDGE
 70
     3
  9
$SHADEDIF
 70
    70
  9
$TILEMODE
 70
     1
  9
$MAXACTVP
 70
    64
  9
$PINSBASE
 10
0.0
 20
0.0
 30
0.0
  9
$PLIMCHECK
 70
     0
  9
$PEXTMIN
 10
1.000000000000000E+20
 20
1.000000000000000E+20
 30
1.000000000000000E+20
  9
$PEXTMAX
 10
-1.000000000000000E+20
 20
-1.000000000000000E+20
 30
-1.000000000000000E+20
  9
$PLIMMIN
 10
0.0
 20
0.0
  9
$PLIMMAX
 10
12.0
 20
9.0
  9
$UNITMODE
 70
     0
  9
$VISRETAIN
 70
     1
  9
$PLINEGEN
 70
     0
  9
$PSLTSCALE
 70
     1
  9
$TREEDEPTH
 70
  3020
  9
$CMLSTYLE
  2
Standard
  9
$CMLJUST
 70
     0
  9
$CMLSCALE
 40
1.0
  9
$PROXYGRAPHICS
 70
     1
  9
$MEASUREMENT
 70
     1
  9
$CELWEIGHT
370
    -1
  9
$ENDCAPS
280
     0
  9
$JOINSTYLE
280
     0
  9
$LWDISPLAY
290
     0
  9
$INSUNITS
 70
     0
  9
$HYPERLINKBASE
  1

  9
$STYLESHEET
  1

  9
$XEDIT
290
     1
  9
$CEPSNTYPE
380
     0
  9
$PSTYLEMODE
290
     1
  9
$FINGERPRINTGUID
  2
{BAB04EBC-4BDB-488A-AB0C-5476E16E23CF}
  9
$VERSIONGUID
  2
{EC6DE23B-85C7-4FF7-8377-3E9F3D578075}
  9
$EXTNAMES
290
     1
  9
$PSVPSCALE
 40
0.0
  9
$OLESTARTUP
290
     0
  0
ENDSEC
  0
SECTION
  2
CLASSES
  0
CLASS
  1
ACDBDICTIONARYWDFLT
  2
AcDbDictionaryWithDefault
  3
ObjectDBX Classes
 90
        0
280
     0
281
     0
  0
CLASS
  1
DICTIONARYVAR
  2
AcDbDictionaryVar
  3
ObjectDBX Classes
 90
        0
280
     0
281
     0
  0
CLASS
  1
ACDBPLACEHOLDER
  2
AcDbPlaceHolder
  3
ObjectDBX Classes
 90
        0
280
     0
281
     0
  0
CLASS
  1
LAYOUT
  2
AcDbLayout
  3
ObjectDBX Classes
 90
        0
280
     0
281
     0
  0
ENDSEC
  0
SECTION
  2
TABLES
  0
TABLE
  2
VPORT
  5
8
330
0
100
AcDbSymbolTable
 70
     1
  0
VPORT
  5
13
330
8
100
AcDbSymbolTableRecord
100
AcDbViewportTableRecord
  2
*Active
 70
     0
 10
0.0
 20
0.0
 11
1.0
 21
1.0
 12
468.500626565432
 22
697.378812049417
 13
0.0
 23
0.0
 14
1.0
 24
1.0
 15
0.0
 25
0.0
 16
0.0
 26
0.0
 36
1.0
 17
0.0
 27
0.0
 37
0.0
 40
1394.757624098834
 41
0.6718022091732744
 42
50.0
 43
0.0
 44
0.0
 50
0.0
 51
0.0
 71
     0
 72
   100
 73
     1
 74
     1
 75
     0
 76
     0
 77
     0
 78
     0
281
     0
 65
     1
110
0.0
120
0.0
130
0.0
111
1.0
121
0.0
131
0.0
112
0.0
122
1.0
132
0.0
 79
     0
146
0.0
  0
ENDTAB
  0
TABLE
  2
LTYPE
  5
5
330
0
100
AcDbSymbolTable
 70
    47
  0
LTYPE
  5
14
330
5
100
AcDbSymbolTableRecord
100
AcDbLinetypeTableRecord
  2
ByBlock
 70
     0
  3

 72
    65
 73
     0
 40
0.0
  0
LTYPE
  5
15
330
5
100
AcDbSymbolTableRecord
100
AcDbLinetypeTableRecord
  2
ByLayer
 70
     0
  3

 72
    65
 73
     0
 40
0.0
  0
LTYPE
  5
16
330
5
100
AcDbSymbolTableRecord
100
AcDbLinetypeTableRecord
  2
Continuous
 70
     0
  3
Solid line
 72
    65
 73
     0
 40
0.0
  0
LTYPE
  5
2A
330
5
100
AcDbSymbolTableRecord
100
AcDbLinetypeTableRecord
  2
HIDDEN
 70
     0
  3
_ _ _ _ _ _ _ _ _ _ _ _ _ _ 
 72
    65
 73
     2
 40
0.9525
 49
0.635
 74
     0
 49
-0.3175
 74
     0
  0
LTYPE
  5
2B
330
5
100
AcDbSymbolTableRecord
100
AcDbLinetypeTableRecord
  2
DASHED
 70
     0
  3
__ __ __ __ __ __ __ __ __ 
 72
    65
 73
     2
 40
1.905
 49
1.27
 74
     0
 49
-0.635
 74
     0
  0
LTYPE
  5
2C
330
5
100
AcDbSymbolTableRecord
100
AcDbLinetypeTableRecord
  2
CENTER
 70
     0
  3
____ _ ____ _ ____ _ ____ _ 
 72
    65
 73
     4
 40
5.079999999999999
 49
3.174999999999999
 74
     0
 49
-0.635
 74
     0
 49
0.635
 74
     0
 49
-0.635
 74
     0
  0
LTYPE
  5
2D
330
5
100
AcDbSymbolTableRecord
100
AcDbLinetypeTableRecord
  2
PHANTOM
 70
     0
  3
_____ _ _ _____ _ _ _____ _ _ 
 72
    65
 73
     6
 40
6.349999999999998
 49
3.174999999999999
 74
     0
 49
-0.635
 74
     0
 49
0.635
 74
     0
 49
-0.635
 74
     0
 49
0.635
 74
     0
 49
-0.635
 74
     0
  0
LTYPE
  5
2E
330
5
100
AcDbSymbolTableRecord
100
AcDbLinetypeTableRecord
  2
DOT
 70
     0
  3
...........................
 72
    65
 73
     2
 40
0.635
 49
0.0
 74
     0
 49
-0.635
 74
     0
  0
LTYPE
  5
2F
330
5
100
AcDbSymbolTableRecord
100
AcDbLinetypeTableRecord
  2
DASHDOT
 70
     0
  3
__ . __ . __ . __ . __ . __ . 
 72
    65
 73
     4
 40
2.54
 49
1.27
 74
     0
 49
-0.635
 74
     0
 49
0.0
 74
     0
 49
-0.635
 74
     0
  0
LTYPE
  5
30
330
5
100
AcDbSymbolTableRecord
100
AcDbLinetypeTableRecord
  2
DIVIDE
 70
     0
  3
__ . . __ . . __ . . __ . . 
 72
    65
 73
     6
 40
3.174999999999999
 49
1.27
 74
     0
 49
-0.635
 74
     0
 49
0.0
 74
     0
 49
-0.635
 74
     0
 49
0.0
 74
     0
 49
-0.635
 74
     0
  0
LTYPE
  5
31
330
5
100
AcDbSymbolTableRecord
100
AcDbLinetypeTableRecord
  2
BORDER
 70
     0
  3
__ __ . __ __ . __ __ . __ __ .
 72
    65
 73
     6
 40
4.444999999999999
 49
1.27
 74
     0
 49
-0.635
 74
     0
 49
1.27
 74
     0
 49
-0.635
 74
     0
 49
0.0
 74
     0
 49
-0.635
 74
     0
  0
LTYPE
  5
32
330
5
100
AcDbSymbolTableRecord
100
AcDbLinetypeTableRecord
  2
RAND
 70
     0
  3
Rand __ __ . __ __ . __ __ . __
 72
    65
 73
     6
 40
1.75
 49
0.5
 74
     0
 49
-0.25
 74
     0
 49
0.5
 74
     0
 49
-0.25
 74
     0
 49
0.0
 74
     0
 49
-0.25
 74
     0
  0
LTYPE
  5
33
330
5
100
AcDbSymbolTableRecord
100
AcDbLinetypeTableRecord
  2
RAND2
 70
     0
  3
Rand (.5x) __.__.__.__.__.__.__
 72
    65
 73
     6
 40
0.875
 49
0.25
 74
     0
 49
-0.125
 74
     0
 49
0.25
 74
     0
 49
-0.125
 74
     0
 49
0.0
 74
     0
 49
-0.125
 74
     0
  0
LTYPE
  5
34
330
5
100
AcDbSymbolTableRecord
100
AcDbLinetypeTableRecord
  2
RANDX2
 70
     0
  3
Rand (2x) ____  ____  .  ____  
 72
    65
 73
     6
 40
3.5
 49
1.0
 74
     0
 49
-0.5
 74
     0
 49
1.0
 74
     0
 49
-0.5
 74
     0
 49
0.0
 74
     0
 49
-0.5
 74
     0
  0
LTYPE
  5
35
330
5
100
AcDbSymbolTableRecord
100
AcDbLinetypeTableRecord
  2
MITTE
 70
     0
  3
Mitte ____ _ ____ _ ____ _ ____
 72
    65
 73
     4
 40
2.0
 49
1.25
 74
     0
 49
-0.25
 74
     0
 49
0.25
 74
     0
 49
-0.25
 74
     0
  0
LTYPE
  5
36
330
5
100
AcDbSymbolTableRecord
100
AcDbLinetypeTableRecord
  2
MITTE2
 70
     0
  3
Mitte (.5x) ___ _ ___ _ ___ _ _
 72
    65
 73
     4
 40
1.125
 49
0.7500000000000001
 74
     0
 49
-0.125
 74
     0
 49
0.125
 74
     0
 49
-0.125
 74
     0
  0
LTYPE
  5
37
330
5
100
AcDbSymbolTableRecord
100
AcDbLinetypeTableRecord
  2
MITTEX2
 70
     0
  3
Mitte (2x) ________  __  ______
 72
    65
 73
     4
 40
4.0
 49
2.5
 74
     0
 49
-0.5
 74
     0
 49
0.5
 74
     0
 49
-0.5
 74
     0
  0
LTYPE
  5
38
330
5
100
AcDbSymbolTableRecord
100
AcDbLinetypeTableRecord
  2
STRICHPUNKT
 70
     0
  3
Strichpunkt __ . __ . __ . __ .
 72
    65
 73
     4
 40
1.0
 49
0.5
 74
     0
 49
-0.25
 74
     0
 49
0.0
 74
     0
 49
-0.25
 74
     0
  0
LTYPE
  5
39
330
5
100
AcDbSymbolTableRecord
100
AcDbLinetypeTableRecord
  2
STRICHPUNKT2
 70
     0
  3
Strichpunkt (.5x) _._._._._._._
 72
    65
 73
     4
 40
0.5
 49
0.25
 74
     0
 49
-0.125
 74
     0
 49
0.0
 74
     0
 49
-0.125
 74
     0
  0
LTYPE
  5
3A
330
5
100
AcDbSymbolTableRecord
100
AcDbLinetypeTableRecord
  2
STRICHPUNKTX2
 70
     0
  3
Strichpunkt (2x) ____  .  ____ 
 72
    65
 73
     4
 40
2.0
 49
1.0
 74
     0
 49
-0.5
 74
     0
 49
0.0
 74
     0
 49
-0.5
 74
     0
  0
LTYPE
  5
3B
330
5
100
AcDbSymbolTableRecord
100
AcDbLinetypeTableRecord
  2
STRICHLINIE
 70
     0
  3
Strichlinie __ __ __ __ __ __ _
 72
    65
 73
     2
 40
0.75
 49
0.5
 74
     0
 49
-0.25
 74
     0
  0
LTYPE
  5
3C
330
5
100
AcDbSymbolTableRecord
100
AcDbLinetypeTableRecord
  2
STRICHLINIE2
 70
     0
  3
Strichlinie (.5x) _ _ _ _ _ _ _
 72
    65
 73
     2
 40
0.375
 49
0.25
 74
     0
 49
-0.125
 74
     0
  0
LTYPE
  5
3D
330
5
100
AcDbSymbolTableRecord
100
AcDbLinetypeTableRecord
  2
STRICHLINIEX2
 70
     0
  3
Strichlinie (2x) ____  ____  __
 72
    65
 73
     2
 40
1.5
 49
1.0
 74
     0
 49
-0.5
 74
     0
  0
LTYPE
  5
3E
330
5
100
AcDbSymbolTableRecord
100
AcDbLinetypeTableRecord
  2
GETRENNT
 70
     0
  3
Getrennt ____ . . ____ . . ____
 72
    65
 73
     6
 40
1.25
 49
0.5
 74
     0
 49
-0.25
 74
     0
 49
0.0
 74
     0
 49
-0.25
 74
     0
 49
0.0
 74
     0
 49
-0.25
 74
     0
  0
LTYPE
  5
3F
330
5
100
AcDbSymbolTableRecord
100
AcDbLinetypeTableRecord
  2
GETRENNT2
 70
     0
  3
Getrennt (.5x) __..__..__..__..
 72
    65
 73
     6
 40
0.625
 49
0.25
 74
     0
 49
-0.125
 74
     0
 49
0.0
 74
     0
 49
-0.125
 74
     0
 49
0.0
 74
     0
 49
-0.125
 74
     0
  0
LTYPE
  5
40
330
5
100
AcDbSymbolTableRecord
100
AcDbLinetypeTableRecord
  2
GETRENNTX2
 70
     0
  3
Getrennt (2x) ________  .  .  _
 72
    65
 73
     6
 40
2.5
 49
1.0
 74
     0
 49
-0.5
 74
     0
 49
0.0
 74
     0
 49
-0.5
 74
     0
 49
0.0
 74
     0
 49
-0.5
 74
     0
  0
LTYPE
  5
41
330
5
100
AcDbSymbolTableRecord
100
AcDbLinetypeTableRecord
  2
PUNKT
 70
     0
  3
Punkt . . . . . . . . . . . . .
 72
    65
 73
     2
 40
0.25
 49
0.0
 74
     0
 49
-0.25
 74
     0
  0
LTYPE
  5
42
330
5
100
AcDbSymbolTableRecord
100
AcDbLinetypeTableRecord
  2
PUNKT2
 70
     0
  3
Punkt (.5x) ...................
 72
    65
 73
     2
 40
0.125
 49
0.0
 74
     0
 49
-0.125
 74
     0
  0
LTYPE
  5
43
330
5
100
AcDbSymbolTableRecord
100
AcDbLinetypeTableRecord
  2
PUNKTX2
 70
     0
  3
Punkt (2x) .  .  .  .  .  .  . 
 72
    65
 73
     2
 40
0.5
 49
0.0
 74
     0
 49
-0.5
 74
     0
  0
LTYPE
  5
44
330
5
100
AcDbSymbolTableRecord
100
AcDbLinetypeTableRecord
  2
VERDECKT
 70
     0
  3
Verdeckt __ __ __ __ __ __ __ _
 72
    65
 73
     2
 40
0.375
 49
0.25
 74
     0
 49
-0.125
 74
     0
  0
LTYPE
  5
45
330
5
100
AcDbSymbolTableRecord
100
AcDbLinetypeTableRecord
  2
VERDECKT2
 70
     0
  3
Verdeckt (.5x) _ _ _ _ _ _ _ _ 
 72
    65
 73
     2
 40
0.1875
 49
0.125
 74
     0
 49
-0.0625
 74
     0
  0
LTYPE
  5
46
330
5
100
AcDbSymbolTableRecord
100
AcDbLinetypeTableRecord
  2
VERDECKTX2
 70
     0
  3
Verdeckt (2x) ____ ____ ____ __
 72
    65
 73
     2
 40
0.75
 49
0.5
 74
     0
 49
-0.25
 74
     0
  0
LTYPE
  5
47
330
5
100
AcDbSymbolTableRecord
100
AcDbLinetypeTableRecord
  2
PHANTOM2
 70
     0
  3
Phantom (.5x) ___ _ _ ___ _ _ _
 72
    65
 73
     6
 40
1.25
 49
0.6250000000000001
 74
     0
 49
-0.125
 74
     0
 49
0.125
 74
     0
 49
-0.125
 74
     0
 49
0.125
 74
     0
 49
-0.125
 74
     0
  0
LTYPE
  5
48
330
5
100
AcDbSymbolTableRecord
100
AcDbLinetypeTableRecord
  2
PHANTOMX2
 70
     0
  3
Phantom (2x) ____________    __
 72
    65
 73
     6
 40
5.0
 49
2.5
 74
     0
 49
-0.5
 74
     0
 49
0.5
 74
     0
 49
-0.5
 74
     0
 49
0.5
 74
     0
 49
-0.5
 74
     0
  0
LTYPE
  5
49
330
5
100
AcDbSymbolTableRecord
100
AcDbLinetypeTableRecord
  2
PUNKTE
 70
     0
  3
Punkte - - - - - - - - - - - - 
 72
    65
 73
     2
 40
0.1
 49
0.05
 74
     0
 49
-0.05
 74
     0
  0
LTYPE
  5
4A
330
5
100
AcDbSymbolTableRecord
100
AcDbLinetypeTableRecord
  2
ACAD_ISO02W100
 70
     0
  3
__ __ __ __ __ __ __ __ __ __ _
 72
    65
 73
     2
 40
15.0
 49
12.0
 74
     0
 49
-3.0
 74
     0
  0
LTYPE
  5
4B
330
5
100
AcDbSymbolTableRecord
100
AcDbLinetypeTableRecord
  2
ACAD_ISO03W100
 70
     0
  3
__    __    __    __    __    _
 72
    65
 73
     2
 40
30.0
 49
12.0
 74
     0
 49
-18.0
 74
     0
  0
LTYPE
  5
4C
330
5
100
AcDbSymbolTableRecord
100
AcDbLinetypeTableRecord
  2
ACAD_ISO04W100
 70
     0
  3
____ . ____ . ____ . ____ . ___
 72
    65
 73
     4
 40
30.5
 49
24.0
 74
     0
 49
-3.0
 74
     0
 49
0.5
 74
     0
 49
-3.0
 74
     0
  0
LTYPE
  5
4D
330
5
100
AcDbSymbolTableRecord
100
AcDbLinetypeTableRecord
  2
ACAD_ISO05W100
 70
     0
  3
____ .. ____ .. ____ .. ____ ..
 72
    65
 73
     6
 40
34.0
 49
24.0
 74
     0
 49
-3.0
 74
     0
 49
0.5
 74
     0
 49
-3.0
 74
     0
 49
0.5
 74
     0
 49
-3.0
 74
     0
  0
LTYPE
  5
4E
330
5
100
AcDbSymbolTableRecord
100
AcDbLinetypeTableRecord
  2
ACAD_ISO06W100
 70
     0
  3
____ ... ____ ... ____ ... ____
 72
    65
 73
     6
 40
34.0
 49
24.0
 74
     0
 49
-3.0
 74
     0
 49
0.5
 74
     0
 49
-3.0
 74
     0
 49
0.5
 74
     0
 49
-3.0
 74
     0
  0
LTYPE
  5
4F
330
5
100
AcDbSymbolTableRecord
100
AcDbLinetypeTableRecord
  2
ACAD_ISO07W100
 70
     0
  3
. . . . . . . . . . . . . . . .
 72
    65
 73
     2
 40
3.5
 49
0.5
 74
     0
 49
-3.0
 74
     0
  0
LTYPE
  5
50
330
5
100
AcDbSymbolTableRecord
100
AcDbLinetypeTableRecord
  2
ACAD_ISO08W100
 70
     0
  3
____ __ ____ __ ____ __ ____ __
 72
    65
 73
     4
 40
36.0
 49
24.0
 74
     0
 49
-3.0
 74
     0
 49
6.0
 74
     0
 49
-3.0
 74
     0
  0
LTYPE
  5
51
330
5
100
AcDbSymbolTableRecord
100
AcDbLinetypeTableRecord
  2
ACAD_ISO09W100
 70
     0
  3
____ __ __ ____ __ __ ____ __ _
 72
    65
 73
     6
 40
45.0
 49
24.0
 74
     0
 49
-3.0
 74
     0
 49
6.0
 74
     0
 49
-3.0
 74
     0
 49
6.0
 74
     0
 49
-3.0
 74
     0
  0
LTYPE
  5
52
330
5
100
AcDbSymbolTableRecord
100
AcDbLinetypeTableRecord
  2
ACAD_ISO10W100
 70
     0
  3
__ . __ . __ . __ . __ . __ . _
 72
    65
 73
     4
 40
18.5
 49
12.0
 74
     0
 49
-3.0
 74
     0
 49
0.5
 74
     0
 49
-3.0
 74
     0
  0
LTYPE
  5
53
330
5
100
AcDbSymbolTableRecord
100
AcDbLinetypeTableRecord
  2
ACAD_ISO11W100
 70
     0
  3
__ __ . __ __ . __ __ . __ __ .
 72
    65
 73
     6
 40
33.5
 49
12.0
 74
     0
 49
-3.0
 74
     0
 49
12.0
 74
     0
 49
-3.0
 74
     0
 49
0.5
 74
     0
 49
-3.0
 74
     0
  0
LTYPE
  5
54
330
5
100
AcDbSymbolTableRecord
100
AcDbLinetypeTableRecord
  2
ACAD_ISO12W100
 70
     0
  3
__ . . __ . . __ . . __ . . __ 
 72
    65
 73
     6
 40
22.0
 49
12.0
 74
     0
 49
-3.0
 74
     0
 49
0.5
 74
     0
 49
-3.0
 74
     0
 49
0.5
 74
     0
 49
-3.0
 74
     0
  0
LTYPE
  5
55
330
5
100
AcDbSymbolTableRecord
100
AcDbLinetypeTableRecord
  2
ACAD_ISO13W100
 70
     0
  3
__ __ . . __ __ . . __ __ . . _
 72
    65
 73
     6
 40
33.5
 49
12.0
 74
     0
 49
-3.0
 74
     0
 49
12.0
 74
     0
 49
-3.0
 74
     0
 49
0.5
 74
     0
 49
-3.0
 74
     0
  0
LTYPE
  5
56
330
5
100
AcDbSymbolTableRecord
100
AcDbLinetypeTableRecord
  2
ACAD_ISO14W100
 70
     0
  3
__ . . . __ . . . __ . . . __ .
 72
    65
 73
     6
 40
22.0
 49
12.0
 74
     0
 49
-3.0
 74
     0
 49
0.5
 74
     0
 49
-3.0
 74
     0
 49
0.5
 74
     0
 49
-3.0
 74
     0
  0
LTYPE
  5
57
330
5
100
AcDbSymbolTableRecord
100
AcDbLinetypeTableRecord
  2
ACAD_ISO15W100
 70
     0
  3
__ __ . . . __ __ . . . __ __ .
 72
    65
 73
     6
 40
33.5
 49
12.0
 74
     0
 49
-3.0
 74
     0
 49
12.0
 74
     0
 49
-3.0
 74
     0
 49
0.5
 74
     0
 49
-3.0
 74
     0
  0
ENDTAB
  0
TABLE
  2
LAYER
  5
2
330
0
100
AcDbSymbolTable
 70
     2
  0
LAYER
  5
10
330
2
100
AcDbSymbolTableRecord
100
AcDbLayerTableRecord
  2
0
 70
     0
 62
     7
  6
Continuous
370
    -3
390
F
  0
LAYER
  5
58
330
2
100
AcDbSymbolTableRecord
100
AcDbLayerTableRecord
  2
1
 70
     0
 62
     7
  6
Continuous
370
    -3
390
F
  0
ENDTAB
  0
TABLE
  2
STYLE
  5
3
330
0
100
AcDbSymbolTable
 70
     7
  0
STYLE
  5
11
330
3
100
AcDbSymbolTableRecord
100
AcDbTextStyleTableRecord
  2
Standard
 70
     0
 40
0.0
 41
1.0
 50
0.0
 71
     0
 42
35.0
  3
txt
  4

  0
STYLE
  5
59
330
3
100
AcDbSymbolTableRecord
100
AcDbTextStyleTableRecord
  2
ITALIC
 70
     0
 40
0.0
 41
1.0
 50
0.0
 71
     0
 42
35.0
  3
ITALIC
  4

  0
STYLE
  5
5A
330
3
100
AcDbSymbolTableRecord
100
AcDbTextStyleTableRecord
  2
SIMPLEX
 70
     0
 40
0.0
 41
1.0
 50
0.0
 71
     0
 42
35.0
  3
SIMPLEX
  4

  0
STYLE
  5
5B
330
3
100
AcDbSymbolTableRecord
100
AcDbTextStyleTableRecord
  2
COMPLEX
 70
     0
 40
0.0
 41
1.0
 50
0.0
 71
     0
 42
35.0
  3
COMPLEX
  4

  0
STYLE
  5
72
330
3
100
AcDbSymbolTableRecord
100
AcDbTextStyleTableRecord
  2
ARIALBLACK
 70
     0
 40
0.0
 41
1.0
 50
0.0
 71
     0
 42
35.0
  3

  4

1001
ACAD
1000
Arial Black
1071
        0
  0
STYLE
  5
7B
330
3
100
AcDbSymbolTableRecord
100
AcDbTextStyleTableRecord
  2
ARIALUNICODEMS
 70
     0
 40
0.0
 41
1.0
 50
0.0
 71
     0
 42
35.0
  3
ARIALUNI.TTF
  4

1001
ACAD
1000
@Arial Unicode MS
1071
        0
  0
STYLE
  5
AA
330
3
100
AcDbSymbolTableRecord
100
AcDbTextStyleTableRecord
  2
ARIAL
 70
     0
 40
0.0
 41
1.0
 50
0.0
 71
     0
 42
35.0
  3
arial.ttf
  4

1001
ACAD
1000
Arial
1071
        0
  0
ENDTAB
  0
TABLE
  2
VIEW
  5
6
330
0
100
AcDbSymbolTable
 70
     0
  0
ENDTAB
  0
TABLE
  2
UCS
  5
7
330
0
100
AcDbSymbolTable
 70
     0
  0
ENDTAB
  0
TABLE
  2
APPID
  5
9
330
0
100
AcDbSymbolTable
 70
     1
  0
APPID
  5
12
330
9
100
AcDbSymbolTableRecord
100
AcDbRegAppTableRecord
  2
ACAD
 70
     0
  0
ENDTAB
  0
TABLE
  2
DIMSTYLE
  5
A
330
0
100
AcDbSymbolTable
 70
     1
100
AcDbDimStyleTable
 71
     0
  0
DIMSTYLE
105
29
330
A
100
AcDbSymbolTableRecord
100
AcDbDimStyleTableRecord
  2
Standard
 70
     0
340
11
  0
ENDTAB
  0
TABLE
  2
BLOCK_RECORD
  5
1
330
0
100
AcDbSymbolTable
 70
     1
  0
BLOCK_RECORD
  5
21
330
1
100
AcDbSymbolTableRecord
100
AcDbBlockTableRecord
  2
*Model_Space
340
24
  0
BLOCK_RECORD
  5
1D
330
1
100
AcDbSymbolTableRecord
100
AcDbBlockTableRecord
  2
*Paper_Space
340
20
  0
BLOCK_RECORD
  5
25
330
1
100
AcDbSymbolTableRecord
100
AcDbBlockTableRecord
  2
*Paper_Space0
340
28
  0
ENDTAB
  0
ENDSEC
  0
SECTION
  2
BLOCKS
  0
BLOCK
  5
22
330
21
100
AcDbEntity
  8
0
100
AcDbBlockBegin
  2
*Model_Space
 70
     0
 10
0.0
 20
0.0
 30
0.0
  3
*Model_Space
  1

  0
ENDBLK
  5
23
330
21
100
AcDbEntity
  8
0
100
AcDbBlockEnd
  0
BLOCK
  5
1E
330
1D
100
AcDbEntity
 67
     1
  8
0
100
AcDbBlockBegin
  2
*Paper_Space
 70
     0
 10
0.0
 20
0.0
 30
0.0
  3
*Paper_Space
  1

  0
ENDBLK
  5
1F
330
1D
100
AcDbEntity
 67
     1
  8
0
100
AcDbBlockEnd
  0
BLOCK
  5
26
330
25
100
AcDbEntity
  8
0
100
AcDbBlockBegin
  2
*Paper_Space0
 70
     0
 10
0.0
 20
0.0
 30
0.0
  3
*Paper_Space0
  1

  0
ENDBLK
  5
27
330
25
100
AcDbEntity
  8
0
100
AcDbBlockEnd
  0
ENDSEC
  0
SECTION
  2
ENTITIES
  0
LINE
  5
5C
330
21
100
AcDbEntity
  8
1
  6
Continuous
 62
     7
100
AcDbLine
 10
153.4878768524526
 20
881.7669335959628
 30
0.0
 11
201.5278768524527
 21
881.7669335959628
 31
0.0
  0
LWPOLYLINE
  5
5D
330
21
100
AcDbEntity
  8
1
  6
Continuous
 62
     7
100
AcDbPolyline
 90
        9
 70
     0
 43
0.0
 10
200.9236964276857
 20
875.447594322685
 42
0.4142135623730884
 10
200.0419809773118
 20
876.3293097730587
 10
188.2113523208005
 20
876.3293097730587
 42
0.4142135623730922
 10
187.3296368704267
 20
875.447594322685
 10
187.3296368704267
 20
874.1901230995976
 42
0.4142135623730884
 10
188.2113523208005
 20
873.3084076492234
 10
200.0419809773118
 20
873.3084076492234
 42
0.4142135623730884
 10
200.9236964276857
 20
874.1901230995976
 10
200.9236964276857
 20
875.447594322685
 42
0.4142135623730884
  0
LINE
  5
5E
330
21
100
AcDbEntity
  8
1
  6
Continuous
 62
     9
100
AcDbLine
 10
167.5078768524525
 20
1026.287175330979
 30
0.0
 11
167.5078768524525
 21
881.7669335959628
 31
0.0
  0
LINE
  5
5F
330
21
100
AcDbEntity
  8
1
  6
Continuous
 62
     7
100
AcDbLine
 10
201.5275739875341
 20
975.3239168742767
 30
0.0
 11
196.9126953110952
 21
970.5408218448708
 31
0.0
  0
LINE
  5
60
330
21
100
AcDbEntity
  8
1
  6
Continuous
 62
     7
100
AcDbLine
 10
196.9126953110952
 20
970.5408218448708
 30
0.0
 11
191.4582886986148
 21
965.2962001021011
 31
0.0
  0
LINE
  5
61
330
21
100
AcDbEntity
  8
1
  6
Continuous
 62
     7
100
AcDbLine
 10
191.4582886986146
 20
965.2962001021011
 30
0.0
 11
187.0484429093981
 21
962.9885665352825
 31
0.0
  0
LINE
  5
62
330
21
100
AcDbEntity
  8
1
  6
Continuous
 62
     7
100
AcDbLine
 10
187.0484429093981
 20
962.9885665352825
 30
0.0
 11
201.4860054707903
 21
962.9885665352825
 31
0.0
  0
LINE
  5
63
330
21
100
AcDbEntity
  8
1
  6
Continuous
 62
     7
100
AcDbLine
 10
197.7223231490668
 20
971.379961323714
 30
0.0
 11
201.5487731038077
 21
971.379961323714
 31
0.0
  0
CIRCLE
  5
64
330
21
100
AcDbEntity
  8
1
  6
Continuous
 62
     7
100
AcDbCircle
 10
200.0385721054019
 20
929.7143564496854
 30
0.0
 40
1.223245483550002
  0
LINE
  5
65
330
21
100
AcDbEntity
  8
1
  6
Continuous
 62
     7
100
AcDbLine
 10
202.0592247150764
 20
975.3239168742767
 30
0.0
 11
203.7936390376091
 21
975.3239168742767
 31
0.0
  0
LINE
  5
66
330
21
100
AcDbEntity
  8
1
  6
Continuous
 62
     7
100
AcDbLine
 10
259.3304941461216
 20
975.3239168742767
 30
0.0
 11
258.1055370184214
 21
965.5242598526774
 31
0.0
  0
LINE
  5
67
330
21
100
AcDbEntity
  8
1
  6
Continuous
 62
     7
100
AcDbLine
 10
258.1195285396919
 20
965.5242598526772
 30
0.0
 11
258.8741793205788
 21
962.7368246916296
 31
0.0
  0
LINE
  5
68
330
21
100
AcDbEntity
  8
1
  6
Continuous
 62
     7
100
AcDbLine
 10
203.7936390376091
 20
975.3239168742767
 30
0.0
 11
204.993597040254
 21
965.5242598526772
 31
0.0
  0
LINE
  5
69
330
21
100
AcDbEntity
  8
1
  6
Continuous
 62
     7
100
AcDbLine
 10
204.993597040254
 20
965.5242598526772
 30
0.0
 11
204.2184206648516
 21
962.7368246916296
 31
0.0
  0
LINE
  5
6A
330
21
100
AcDbEntity
  8
1
  6
Continuous
 62
     7
100
AcDbLine
 10
203.7936390376091
 20
975.3239168742767
 30
0.0
 11
201.5487731038077
 21
971.379961323714
 31
0.0
  0
LINE
  5
6B
330
21
100
AcDbEntity
  8
1
  6
Continuous
 62
     7
100
AcDbLine
 10
259.3304941461216
 20
975.3239168742767
 30
0.0
 11
261.0087731038078
 21
971.7575740891932
 31
0.0
  0
LINE
  5
6C
330
21
100
AcDbEntity
  8
1
  6
Continuous
 62
     7
100
AcDbLine
 10
261.0087731038078
 20
971.7575740891932
 30
0.0
 11
261.0087731038078
 21
962.1074700824973
 31
0.0
  0
LINE
  5
6D
330
21
100
AcDbEntity
  8
1
  6
Continuous
 62
     7
100
AcDbLine
 10
201.5275739875341
 20
975.3239168742767
 30
0.0
 11
203.7936390376091
 21
975.3239168742767
 31
0.0
  0
LINE
  5
6E
330
21
100
AcDbEntity
  8
1
  6
Continuous
 62
     7
100
AcDbLine
 10
204.993597040254
 20
965.5242598526772
 30
0.0
 11
258.1195285396919
 21
965.5242598526772
 31
0.0
  0
LINE
  5
6F
330
21
100
AcDbEntity
  8
1
  6
Continuous
 62
     7
100
AcDbLine
 10
204.1975244134965
 20
962.7368246916296
 30
0.0
 11
204.1975244134965
 21
860.0238227317618
 31
0.0
  0
LINE
  5
70
330
21
100
AcDbEntity
  8
1
  6
Continuous
 62
     7
100
AcDbLine
 10
258.8532830692237
 20
962.7368246916296
 30
0.0
 11
258.8532830692237
 21
860.0238227317618
 31
0.0
  0
TEXT
  5
73
102
{ACAD_REACTORS
330
71
102
}
330
21
100
AcDbEntity
  8
1
  6
Continuous
 62
     7
100
AcDbText
 10
258.3515866582002
 20
888.1319698800574
 30
0.0
 40
3.997567239488905
  1
SOLVIS
 50
90.00000000000005
 41
1.283320504288475
  7
ARIALBLACK
100
AcDbText
  0
ARC
  5
75
102
{ACAD_REACTORS
330
71
102
}
330
21
100
AcDbEntity
  8
1
  6
Continuous
 62
     7
100
AcDbCircle
 10
252.0988237647423
 20
888.621127805578
 30
0.0
 40
7.702248677487667
100
AcDbArc
 50
100.5650764672607
 51
336.6306133876712
  0
LINE
  5
76
102
{ACAD_REACTORS
330
71
102
}
330
21
100
AcDbEntity
  8
1
  6
Continuous
 62
     7
100
AcDbLine
 10
250.6865996228043
 20
896.1928024989857
 30
0.0
 11
250.6865996228043
 21
897.2125969976183
 31
0.0
  0
ARC
  5
77
102
{ACAD_REACTORS
330
71
102
}
330
21
100
AcDbEntity
  8
1
  6
Continuous
 62
     7
100
AcDbCircle
 10
252.1308994515305
 20
888.3961007075976
 30
0.0
 40
8.934014149709337
100
AcDbArc
 50
99.30343782452675
 51
341.3572402394312
  0
LINE
  5
78
102
{ACAD_REACTORS
330
71
102
}
330
21
100
AcDbEntity
  8
1
  6
Continuous
 62
     7
100
AcDbLine
 10
259.169231508355
 20
885.5659733039336
 30
0.0
 11
260.5961468365973
 21
885.5401953280679
 31
0.0
  0
HATCH
  5
79
102
{ACAD_REACTORS
330
71
102
}
330
21
100
AcDbEntity
  8
1
  6
Continuous
 62
     1
100
AcDbHatch
 10
0.0
 20
0.0
 30
0.0
210
0.0
220
0.0
230
1.0
  2
SOLID
 70
     1
 71
     0
 91
        1
 92
        3
 72
     1
 73
     1
 93
        4
 10
259.169231508355
 20
885.5659733039336
 42
-1.665358010494822
 10
250.6865996228043
 20
896.1928024989857
 42
0.0
 10
250.6865996228043
 20
897.2125969976183
 42
1.768462565575793
 10
260.5961468365973
 20
885.5401953280679
 42
0.0
 97
        0
 75
     0
 76
     1
 98
        1
 10
0.0
 20
0.0
  0
TEXT
  5
7C
102
{ACAD_REACTORS
330
7A
102
}
330
21
100
AcDbEntity
  8
1
  6
Continuous
 62
     8
100
AcDbText
 10
205.4168324622005
 20
966.042990647508
 30
0.0
 40
1.763481132934151
  1
SolvisLino 
 41
1.439779877320134
  7
ARIALUNICODEMS
100
AcDbText
  0
LINE
  5
7E
102
{ACAD_REACTORS
330
7A
102
}
330
21
100
AcDbEntity
  8
1
  6
Continuous
 62
     8
100
AcDbLine
 10
222.6622466016527
 20
967.9442706459338
 30
0.0
 11
221.7249967382187
 21
966.7017225579984
 31
0.0
  0
LINE
  5
7F
102
{ACAD_REACTORS
330
7A
102
}
330
21
100
AcDbEntity
  8
1
  6
Continuous
 62
     8
100
AcDbLine
 10
221.7249967382187
 20
966.7017225579984
 30
0.0
 11
223.4156133300923
 21
966.7017225579984
 31
0.0
  0
LINE
  5
80
102
{ACAD_REACTORS
330
7A
102
}
330
21
100
AcDbEntity
  8
1
  6
Continuous
 62
     8
100
AcDbLine
 10
222.8902242231039
 20
967.2626953185515
 30
0.0
 11
222.9077714379005
 21
966.2454949104461
 31
0.0
  0
LINE
  5
81
330
21
100
AcDbEntity
  8
1
  6
Continuous
 62
     9
100
AcDbLine
 10
187.5078768524526
 20
881.7669335959628
 30
0.0
 11
187.5078768524526
 21
1026.287175330979
 31
0.0
  0
HATCH
  5
82
330
21
100
AcDbEntity
  8
1
  6
Continuous
 62
     7
100
AcDbHatch
 10
0.0
 20
0.0
 30
0.0
210
0.0
220
0.0
230
1.0
  2
SOLID
 70
     1
 71
     0
 91
        1
 92
        3
 72
     1
 73
     1
 93
        2
 10
201.2618175889518
 20
929.7143564496854
 42
0.9999999999999998
 10
198.8153266218518
 20
929.7143564496854
 42
0.9999999999999998
 97
        0
 75
     0
 76
     1
 98
        1
 10
0.0
 20
0.0
  0
LINE
  5
83
330
21
100
AcDbEntity
  8
1
  6
Continuous
 62
     7
100
AcDbLine
 10
201.4860054707903
 20
962.9885665352825
 30
0.0
 11
201.5279624447325
 21
962.9885665352825
 31
0.0
  0
LINE
  5
84
330
21
100
AcDbEntity
  8
1
  6
Continuous
 62
     7
100
AcDbLine
 10
201.5278768524527
 20
971.379961323714
 30
0.0
 11
201.5278768524527
 21
860.0238227317618
 31
0.0
  0
LINE
  5
85
330
21
100
AcDbEntity
  8
1
  6
Continuous
 62
     7
100
AcDbLine
 10
201.5278768524527
 20
860.0164383043482
 30
0.0
 11
153.4878768524526
 21
860.0164383043482
 31
0.0
  0
LINE
  5
86
330
21
100
AcDbEntity
  8
1
  6
Continuous
 62
     7
100
AcDbLine
 10
153.4878768524526
 20
860.0164383043482
 30
0.0
 11
153.4878768524526
 21
1028.7530074036
 31
0.0
  0
LINE
  5
87
330
21
100
AcDbEntity
  8
1
  6
Continuous
 62
     7
100
AcDbLine
 10
201.5278768524527
 20
1028.7530074036
 30
0.0
 11
201.5278768524527
 21
975.3239168742767
 31
0.0
  0
LINE
  5
88
330
21
100
AcDbEntity
  8
1
  6
Continuous
 62
     7
100
AcDbLine
 10
153.4878768524526
 20
881.1967643592645
 30
0.0
 11
201.5278768524527
 21
881.1967643592645
 31
0.0
  0
LINE
  5
89
330
21
100
AcDbEntity
  8
1
  6
Continuous
 62
     7
100
AcDbLine
 10
201.5487731038077
 20
962.7368246916296
 30
0.0
 11
261.0087731038078
 21
962.7368246916296
 31
0.0
  0
LINE
  5
8A
330
21
100
AcDbEntity
  8
1
  6
Continuous
 62
     7
100
AcDbLine
 10
260.9878768524526
 20
963.6575483688911
 30
0.0
 11
260.9878768524526
 21
860.0238227317618
 31
0.0
  0
LINE
  5
8B
330
21
100
AcDbEntity
  8
1
  6
Continuous
 62
     7
100
AcDbLine
 10
260.9878768524526
 20
860.0238227317618
 30
0.0
 11
201.5278768524527
 21
860.0238227317618
 31
0.0
  0
LINE
  5
8C
330
21
100
AcDbEntity
  8
1
  6
Continuous
 62
     7
100
AcDbLine
 10
155.2513077532003
 20
1030.516438304348
 30
0.0
 11
199.7644459517049
 21
1030.516438304348
 31
0.0
  0
LINE
  5
8D
330
21
100
AcDbEntity
  8
1
  6
Continuous
 62
     7
100
AcDbLine
 10
153.4878768524526
 20
1026.287175330979
 30
0.0
 11
201.5278768524527
 21
1026.287175330979
 31
0.0
  0
LINE
  5
8E
330
21
100
AcDbEntity
  8
1
  6
Continuous
 62
     7
100
AcDbLine
 10
187.827187272911
 20
1026.287175330979
 30
0.0
 11
192.0564502462805
 21
1026.287175330979
 31
0.0
  0
LINE
  5
8F
330
21
100
AcDbEntity
  8
1
  6
Continuous
 62
     7
100
AcDbLine
 10
153.4878768524526
 20
1028.7530074036
 30
0.0
 11
155.2513077532003
 21
1030.516438304348
 31
0.0
  0
LINE
  5
90
330
21
100
AcDbEntity
  8
1
  6
Continuous
 62
     7
100
AcDbLine
 10
199.7644459517049
 20
1030.516438304348
 30
0.0
 11
201.5278768524527
 21
1028.7530074036
 31
0.0
  0
LINE
  5
91
330
21
100
AcDbEntity
  8
1
  6
Continuous
 62
     7
100
AcDbLine
 10
203.7936390376091
 20
975.3239168742767
 30
0.0
 11
259.3304941461216
 21
975.3239168742767
 31
0.0
  0
LINE
  5
92
330
21
100
AcDbEntity
  8
1
  6
Continuous
 62
     7
100
AcDbLine
 10
201.5278768524527
 20
860.0238227317618
 30
0.0
 11
201.5278768524527
 21
860.0164383043482
 31
0.0
  0
LINE
  5
93
330
21
100
AcDbEntity
  8
1
  6
Continuous
 62
     7
100
AcDbLine
 10
201.5278768524527
 20
860.0238227317618
 30
0.0
 11
199.7306948969026
 21
860.0238227317618
 31
0.0
  0
CIRCLE
  5
95
102
{ACAD_REACTORS
330
94
102
}
330
21
100
AcDbEntity
  8
1
  6
Continuous
 62
     7
100
AcDbCircle
 10
232.5182263927017
 20
968.0137286915254
 30
0.0
 40
0.9109174840763538
  0
CIRCLE
  5
96
102
{ACAD_REACTORS
330
94
102
}
330
21
100
AcDbEntity
  8
1
  6
Continuous
 62
     7
100
AcDbCircle
 10
232.4840467584681
 20
968.020170699053
 30
0.0
 40
0.6433644131130616
  0
HATCH
  5
97
102
{ACAD_REACTORS
330
94
102
}
330
21
100
AcDbEntity
  8
1
  6
Continuous
 62
   252
100
AcDbHatch
 10
0.0
 20
0.0
 30
0.0
210
0.0
220
0.0
230
1.0
  2
SOLID
 70
     1
 71
     0
 91
        1
 92
        3
 72
     1
 73
     1
 93
        2
 10
233.127411171581
 20
968.020170699053
 42
1.0
 10
231.8406823453547
 20
968.020170699053
 42
0.9999999999999998
 97
        0
 75
     0
 76
     1
 98
        1
 10
0.0
 20
0.0
  0
CIRCLE
  5
98
102
{ACAD_REACTORS
330
94
102
}
330
21
100
AcDbEntity
  8
1
  6
Continuous
 62
     7
100
AcDbCircle
 10
229.9520834194492
 20
968.0470075416092
 30
0.0
 40
0.8962045694811465
  0
CIRCLE
  5
99
102
{ACAD_REACTORS
330
94
102
}
330
21
100
AcDbEntity
  8
1
  6
Continuous
 62
     7
100
AcDbCircle
 10
229.9184558462397
 20
968.0533454994195
 30
0.0
 40
0.6329729497487083
  0
HATCH
  5
9A
102
{ACAD_REACTORS
330
94
102
}
330
21
100
AcDbEntity
  8
1
  6
Continuous
 62
   252
100
AcDbHatch
 10
0.0
 20
0.0
 30
0.0
210
0.0
220
0.0
230
1.0
  2
SOLID
 70
     1
 71
     0
 91
        1
 92
        3
 72
     1
 73
     1
 93
        2
 10
230.5514287959884
 20
968.0533454994195
 42
1.0
 10
229.2854828964908
 20
968.0533454994195
 42
0.9999999999999998
 97
        0
 75
     0
 76
     1
 98
        1
 10
0.0
 20
0.0
  0
LWPOLYLINE
  5
9B
102
{ACAD_REACTORS
330
94
102
}
330
21
100
AcDbEntity
  8
1
  6
Continuous
 62
     7
100
AcDbPolyline
 90
        5
 70
     0
 43
0.0
 10
225.544045923023
 20
973.6533580759408
 10
236.8724288874055
 20
973.6533580759408
 10
236.8724288874055
 20
966.3528446100055
 10
225.544045923023
 20
966.3528446100055
 10
225.544045923023
 20
973.6533580759408
  0
LWPOLYLINE
  5
9C
102
{ACAD_REACTORS
330
94
102
}
330
21
100
AcDbEntity
  8
1
  6
Continuous
 62
     7
100
AcDbPolyline
 90
        4
 70
     1
 43
0.0
 10
228.3144448303732
 20
972.5384300933029
 10
234.2159932163347
 20
972.5384300933029
 10
234.2159932163347
 20
969.5033480662369
 10
228.3144448303732
 20
969.5033480662369
  0
CIRCLE
  5
9D
102
{ACAD_REACTORS
330
94
102
}
330
21
100
AcDbEntity
  8
1
  6
Continuous
 62
     7
100
AcDbCircle
 10
226.9942462079633
 20
970.8981201429125
 30
0.0
 40
0.8962045694811465
  0
CIRCLE
  5
9E
102
{ACAD_REACTORS
330
94
102
}
330
21
100
AcDbEntity
  8
1
  6
Continuous
 62
     7
100
AcDbCircle
 10
226.9606186347538
 20
970.904458100723
 30
0.0
 40
0.6329729497487083
  0
HATCH
  5
9F
102
{ACAD_REACTORS
330
94
102
}
330
21
100
AcDbEntity
  8
1
  6
Continuous
 62
   252
100
AcDbHatch
 10
0.0
 20
0.0
 30
0.0
210
0.0
220
0.0
230
1.0
  2
SOLID
 70
     1
 71
     0
 91
        1
 92
        3
 72
     1
 73
     1
 93
        2
 10
227.5935915845024
 20
970.904458100723
 42
1.0
 10
226.327645685005
 20
970.904458100723
 42
0.9999999999999998
 97
        0
 75
     0
 76
     1
 98
        1
 10
0.0
 20
0.0
  0
CIRCLE
  5
A0
102
{ACAD_REACTORS
330
94
102
}
330
21
100
AcDbEntity
  8
1
  6
Continuous
 62
     7
100
AcDbCircle
 10
235.5408740557056
 20
970.9751167901895
 30
0.0
 40
0.8962045694811465
  0
CIRCLE
  5
A1
102
{ACAD_REACTORS
330
94
102
}
330
21
100
AcDbEntity
  8
1
  6
Continuous
 62
     7
100
AcDbCircle
 10
235.5072464824963
 20
970.9814547479998
 30
0.0
 40
0.6329729497487083
  0
HATCH
  5
A2
102
{ACAD_REACTORS
330
94
102
}
330
21
100
AcDbEntity
  8
1
  6
Continuous
 62
   252
100
AcDbHatch
 10
0.0
 20
0.0
 30
0.0
210
0.0
220
0.0
230
1.0
  2
SOLID
 70
     1
 71
     0
 91
        1
 92
        3
 72
     1
 73
     1
 93
        2
 10
236.1402194322451
 20
970.9814547479998
 42
1.0
 10
234.8742735327475
 20
970.9814547479998
 42
0.9999999999999998
 97
        0
 75
     0
 76
     1
 98
        1
 10
0.0
 20
0.0
  0
CIRCLE
  5
A3
102
{ACAD_REACTORS
330
94
102
}
330
21
100
AcDbEntity
  8
1
  6
Continuous
 62
     7
100
AcDbCircle
 10
234.8726836796485
 20
968.0125420361937
 30
0.0
 40
0.8962045694811465
  0
CIRCLE
  5
A4
102
{ACAD_REACTORS
330
94
102
}
330
21
100
AcDbEntity
  8
1
  6
Continuous
 62
     7
100
AcDbCircle
 10
234.8390561064391
 20
968.0188799940042
 30
0.0
 40
0.6329729497487083
  0
HATCH
  5
A5
102
{ACAD_REACTORS
330
94
102
}
330
21
100
AcDbEntity
  8
1
  6
Continuous
 62
   252
100
AcDbHatch
 10
0.0
 20
0.0
 30
0.0
210
0.0
220
0.0
230
1.0
  2
SOLID
 70
     1
 71
     0
 91
        1
 92
        3
 72
     1
 73
     1
 93
        2
 10
235.4720290561879
 20
968.0188799940042
 42
1.0
 10
234.2060831566905
 20
968.0188799940042
 42
0.9999999999999998
 97
        0
 75
     0
 76
     1
 98
        1
 10
0.0
 20
0.0
  0
CIRCLE
  5
A6
102
{ACAD_REACTORS
330
94
102
}
330
21
100
AcDbEntity
  8
1
  6
Continuous
 62
     7
100
AcDbCircle
 10
227.4947841386194
 20
968.0658336971562
 30
0.0
 40
0.8962045694811465
  0
CIRCLE
  5
A7
102
{ACAD_REACTORS
330
94
102
}
330
21
100
AcDbEntity
  8
1
  6
Continuous
 62
     7
100
AcDbCircle
 10
227.46115656541
 20
968.0721716549667
 30
0.0
 40
0.6329729497487083
  0
HATCH
  5
A8
102
{ACAD_REACTORS
330
94
102
}
330
21
100
AcDbEntity
  8
1
  6
Continuous
 62
   252
100
AcDbHatch
 10
0.0
 20
0.0
 30
0.0
210
0.0
220
0.0
230
1.0
  2
SOLID
 70
     1
 71
     0
 91
        1
 92
        3
 72
     1
 73
     1
 93
        2
 10
228.0941295151587
 20
968.0721716549667
 42
1.0
 10
226.8281836156614
 20
968.0721716549667
 42
0.9999999999999998
 97
        0
 75
     0
 76
     1
 98
        1
 10
0.0
 20
0.0
  0
HATCH
  5
A9
102
{ACAD_REACTORS
330
94
102
}
330
21
100
AcDbEntity
  8
1
  6
Continuous
 62
   251
100
AcDbHatch
 10
0.0
 20
0.0
 30
0.0
210
0.0
220
0.0
230
1.0
  2
SOLID
 70
     1
 71
     0
 91
        1
 92
        3
 72
     0
 73
     1
 93
        4
 10
234.2159932163347
 20
969.5033480662369
 10
234.2159932163347
 20
972.5384300933029
 10
228.3144448303732
 20
972.5384300933029
 10
228.3144448303732
 20
969.5033480662369
 97
        0
 75
     0
 76
     1
 98
        1
 10
0.0
 20
0.0
  0
TEXT
  5
AB
330
21
100
AcDbEntity
  8
1
  6
Continuous
 62
     7
100
AcDbText
 10
398.7781269029091
 20
956.3956947192266
 30
0.0
 40
4.9983944197413
  1
LI-4-10/15-GS
 41
0.9917996493897598
  7
ARIAL
100
AcDbText
  0
TEXT
  5
AD
330
21
100
AcDbEntity
  8
1
  6
Continuous
 62
     7
100
AcDbText
 10
210.7781269029091
 20
947.3956947192267
 30
0.0
 40
4.9983944197413
  1
LI-4-10/15-GS
 41
0.9917996493897598
  7
ARIAL
100
AcDbText
  0
LWPOLYLINE
  5
AE
330
21
100
AcDbEntity
  8
1
  6
Continuous
 62
     7
100
AcDbPolyline
 90
        5
 70
     0
 43
0.0
 10
727.6443865644727
 20
1129.537529120233
 10
672.1954229908584
 20
1129.537529120233
 10
672.1954229908584
 20
1131.687814660716
 10
727.6443865644727
 20
1131.687814660716
 10
727.6443865644727
 20
1129.537529120233
  0
LWPOLYLINE
  5
AF
330
21
100
AcDbEntity
  8
1
  6
Continuous
 62
     7
100
AcDbPolyline
 90
        4
 70
     1
 43
0.0
 10
727.6443865644727
 20
1131.534222836396
 10
672.3477553083685
 20
1131.534222836396
 10
672.3477553083685
 20
1136.141977566003
 10
727.6443865644727
 20
1136.141977566003
  0
LWPOLYLINE
  5
B0
330
21
100
AcDbEntity
  8
1
  6
Continuous
 62
     7
100
AcDbPolyline
 90
        5
 70
     0
 43
0.0
 10
727.6443865644727
 20
1195.970234202327
 10
727.6443865644727
 20
1136.141977566003
 10
672.0430906733485
 20
1136.141977566003
 10
672.0430906733485
 20
1195.970234202327
 10
729.6247066921019
 20
1195.970234202327
  0
LINE
  5
B1
330
21
100
AcDbEntity
  8
1
  6
Continuous
 62
     7
100
AcDbLine
 10
729.6247066921019
 20
1124.161815269026
 30
0.0
 11
729.6247066921019
 21
1195.970234202327
 31
0.0
  0
LINE
  5
B2
330
21
100
AcDbEntity
  8
1
  6
Continuous
 62
     7
100
AcDbLine
 10
726.730392659413
 20
1117.970234202326
 30
0.0
 11
729.6247066921019
 21
1124.161815269026
 31
0.0
  0
LINE
  5
B3
330
21
100
AcDbEntity
  8
1
  6
Continuous
 62
     7
100
AcDbLine
 10
726.7303926594133
 20
1118.478917769177
 30
0.0
 11
727.6443865644727
 21
1129.537529120233
 31
0.0
  0
LINE
  5
B4
330
21
100
AcDbEntity
  8
1
  6
Continuous
 62
     7
100
AcDbLine
 10
727.6443865644727
 20
1129.998304593194
 30
0.0
 11
729.6247066921019
 21
1131.66221602333
 31
0.0
  0
LINE
  5
B5
330
21
100
AcDbEntity
  8
1
  6
Continuous
 62
     7
100
AcDbLine
 10
727.6443865644727
 20
1131.380631012076
 30
0.0
 11
729.6247066921019
 21
1133.223732903918
 31
0.0
  0
LINE
  5
B6
330
21
100
AcDbEntity
  8
1
  6
Continuous
 62
     7
100
AcDbLine
 10
727.6443865644727
 20
1136.141977566003
 30
0.0
 11
729.6247066921019
 21
1137.217120336244
 31
0.0
  0
LINE
  5
B7
330
21
100
AcDbEntity
  8
1
  6
Continuous
 62
     7
100
AcDbLine
 10
673.1094168959181
 20
1118.478917769177
 30
0.0
 11
672.1954229908584
 21
1129.537529120233
 31
0.0
  0
LINE
  5
B8
330
21
100
AcDbEntity
  8
1
  6
Continuous
 62
     7
100
AcDbLine
 10
673.1094168959181
 20
1117.970234202326
 30
0.0
 11
670.1675957716379
 21
1124.161815269025
 31
0.0
  0
LINE
  5
B9
330
21
100
AcDbEntity
  8
1
  6
Continuous
 62
     7
100
AcDbLine
 10
670.1675957716379
 20
1124.161815269025
 30
0.0
 11
670.1675957716379
 21
1195.970234202327
 31
0.0
  0
CIRCLE
  5
BA
330
21
100
AcDbEntity
  8
1
  6
Continuous
 62
     7
100
AcDbCircle
 10
673.414081530938
 20
1186.754724743113
 30
0.0
 40
6.493180375270454
  0
CIRCLE
  5
BB
330
21
100
AcDbEntity
  8
1
  6
Continuous
 62
     7
100
AcDbCircle
 10
673.414081530938
 20
1186.754724743113
 30
0.0
 40
9.289584381551639
  0
CIRCLE
  5
BC
330
21
100
AcDbEntity
  8
1
  6
Continuous
 62
     7
100
AcDbCircle
 10
645.9942643791505
 20
1185.218806499911
 30
0.0
 40
3.521421478766321
  0
LINE
  5
BD
330
21
100
AcDbEntity
  8
1
  6
Continuous
 62
     7
100
AcDbLine
 10
670.1675957716379
 20
1131.154484339193
 30
0.0
 11
656.048197334806
 21
1131.154484339193
 31
0.0
  0
LINE
  5
BE
330
21
100
AcDbEntity
  8
1
  6
Continuous
 62
     7
100
AcDbLine
 10
670.1675957716379
 20
1139.294851028165
 30
0.0
 11
665.6090837156304
 21
1139.294851028165
 31
0.0
  0
LINE
  5
BF
330
21
100
AcDbEntity
  8
1
  6
Continuous
 62
     7
100
AcDbLine
 10
669.9177141429865
 20
1152.503747919704
 30
0.0
 11
673.7187461659577
 21
1152.503747919704
 31
0.0
  0
LINE
  5
C0
330
21
100
AcDbEntity
  8
1
  6
Continuous
 62
     7
100
AcDbLine
 10
673.7187461659577
 20
1152.503747919704
 30
0.0
 11
673.7187461659577
 21
1152.964523392665
 31
0.0
  0
LINE
  5
C1
330
21
100
AcDbEntity
  8
1
  6
Continuous
 62
     7
100
AcDbLine
 10
673.7187461659577
 20
1152.964523392665
 30
0.0
 11
669.9249878455892
 21
1152.964523392665
 31
0.0
  0
LWPOLYLINE
  5
C2
330
21
100
AcDbEntity
  8
1
  6
Continuous
 62
     7
100
AcDbPolyline
 90
        4
 70
     0
 43
0.0
 10
725.5117341193336
 20
1195.970234202327
 10
725.5117341193336
 20
1191.687529934372
 10
716.0671304337181
 20
1191.687529934372
 10
716.0671304337181
 20
1195.970234202327
  0
LWPOLYLINE
  5
C3
330
21
100
AcDbEntity
  8
1
  6
HIDDEN
 62
     7
100
AcDbPolyline
 90
        4
 70
     1
 43
0.0
 10
725.2070694843139
 20
1185.065214675591
 10
718.9614444664066
 20
1185.065214675591
 10
718.9614444664066
 20
1188.137051161995
 10
725.2070694843139
 20
1188.137051161995
  0
LINE
  5
C4
330
21
100
AcDbEntity
  8
1
  6
Continuous
 62
     7
100
AcDbLine
 10
631.2814568077897
 20
1172.148385964029
 30
0.0
 11
639.9859570769436
 21
1195.970234202327
 31
0.0
  0
LINE
  5
C5
330
21
100
AcDbEntity
  8
1
  6
Continuous
 62
     7
100
AcDbLine
 10
639.9859570769436
 20
1195.970234202327
 30
0.0
 11
672.0430906733485
 21
1195.970234202327
 31
0.0
  0
LWPOLYLINE
  5
C6
330
21
100
AcDbEntity
  8
1
  6
Continuous
 62
     7
100
AcDbPolyline
 90
        4
 70
     1
 43
0.0
 10
707.5060541896602
 20
1120.414174755612
 10
692.1509565846593
 20
1120.414174755612
 10
692.1509565846593
 20
1127.417961944614
 10
707.5060541896602
 20
1127.417961944614
  0
LWPOLYLINE
  5
C7
330
21
100
AcDbEntity
  8
1
  6
Continuous
 62
     7
100
AcDbPolyline
 90
        4
 70
     1
 43
0.0
 10
702.9360846643624
 20
1123.916068350113
 10
696.7209261099575
 20
1123.916068350113
 10
696.7209261099575
 20
1127.049341566246
 10
702.9360846643624
 20
1127.049341566246
  0
LWPOLYLINE
  5
C8
330
21
100
AcDbEntity
  8
1
  6
Continuous
 62
     7
100
AcDbPolyline
 90
        4
 70
     1
 43
0.0
 10
706.0436639415647
 20
1120.967105323165
 10
693.6133468327546
 20
1120.967105323165
 10
693.6133468327546
 20
1122.07296645827
 10
706.0436639415647
 20
1122.07296645827
  0
LINE
  5
C9
330
21
100
AcDbEntity
  8
1
  6
Continuous
 62
     7
100
AcDbLine
 10
703.1779817744643
 20
1120.967105323165
 30
0.0
 11
703.1779817744643
 21
1122.07296645827
 31
0.0
  0
LINE
  5
CA
330
21
100
AcDbEntity
  8
1
  6
Continuous
 62
     7
100
AcDbLine
 10
701.435303293419
 20
1120.967105323165
 30
0.0
 11
701.435303293419
 21
1122.07296645827
 31
0.0
  0
LINE
  5
CB
330
21
100
AcDbEntity
  8
1
  6
Continuous
 62
     7
100
AcDbLine
 10
699.7336290119281
 20
1120.967105323165
 30
0.0
 11
699.7336290119281
 21
1122.07296645827
 31
0.0
  0
LINE
  5
CC
330
21
100
AcDbEntity
  8
1
  6
Continuous
 62
     7
100
AcDbLine
 10
697.9909505308829
 20
1120.967105323165
 30
0.0
 11
697.9909505308829
 21
1122.07296645827
 31
0.0
  0
LINE
  5
CD
330
21
100
AcDbEntity
  8
1
  6
Continuous
 62
     7
100
AcDbLine
 10
696.1662636507297
 20
1120.967105323165
 30
0.0
 11
696.1662636507297
 21
1122.07296645827
 31
0.0
  0
LINE
  5
CE
330
21
100
AcDbEntity
  8
1
  6
Continuous
 62
     7
100
AcDbLine
 10
700.6972277014472
 20
1122.07296645827
 30
0.0
 11
700.6972277014472
 21
1123.916068350113
 31
0.0
  0
LINE
  5
CF
330
21
100
AcDbEntity
  8
1
  6
Continuous
 62
     7
100
AcDbLine
 10
698.8110345219628
 20
1122.07296645827
 30
0.0
 11
698.8110345219628
 21
1123.916068350113
 31
0.0
  0
ARC
  5
D0
330
21
100
AcDbEntity
  8
1
  6
Continuous
 62
     7
100
AcDbCircle
 10
645.9942643791505
 20
1153.118115216985
 30
0.0
 40
23.42363445682178
100
AcDbArc
 50
295.7360033570532
 51
244.7533408195522
  0
ARC
  5
D1
330
21
100
AcDbEntity
  8
1
  6
Continuous
 62
     7
100
AcDbCircle
 10
645.9942643791505
 20
1153.118115216985
 30
0.0
 40
24.12907517769748
100
AcDbArc
 50
294.931230086828
 51
245.5407265831153
  0
LINE
  5
D3
102
{ACAD_REACTORS
330
D2
102
}
330
21
100
AcDbEntity
  8
1
  6
Continuous
 62
     7
100
AcDbLine
 10
707.0695693869318
 20
1191.594836982486
 30
0.0
 11
707.0695693869318
 21
1195.970234202327
 31
0.0
  0
LINE
  5
D4
102
{ACAD_REACTORS
330
D2
102
}
330
21
100
AcDbEntity
  8
1
  6
Continuous
 62
     7
100
AcDbLine
 10
713.5029126415446
 20
1195.970234202327
 30
0.0
 11
713.5029126415446
 21
1191.818513911585
 31
0.0
  0
LINE
  5
D5
102
{ACAD_REACTORS
330
D2
102
}
330
21
100
AcDbEntity
  8
1
  6
Continuous
 62
     7
100
AcDbLine
 10
713.5029126415446
 20
1191.818513911585
 30
0.0
 11
713.5029126415446
 21
1191.594836982486
 31
0.0
  0
ARC
  5
D6
102
{ACAD_REACTORS
330
D2
102
}
330
21
100
AcDbEntity
  8
1
  6
Continuous
 62
     7
100
AcDbCircle
 10
710.2891164992591
 20
1191.693625456197
 30
0.0
 40
3.242774095711378
100
AcDbArc
 50
357.7928306812057
 51
358.2542606088791
  0
LINE
  5
D7
102
{ACAD_REACTORS
330
D2
102
}
330
21
100
AcDbEntity
  8
1
  6
Continuous
 62
     7
100
AcDbLine
 10
707.0744270502147
 20
1191.594836982486
 30
0.0
 11
707.0695693869318
 21
1191.594836982486
 31
0.0
  0
ARC
  5
D8
102
{ACAD_REACTORS
330
D2
102
}
330
21
100
AcDbEntity
  8
1
  6
Continuous
 62
     7
100
AcDbCircle
 10
710.2891164992591
 20
1191.693625456197
 30
0.0
 40
3.242774095711378
100
AcDbArc
 50
181.7457393911209
 51
357.7928306812057
  0
LINE
  5
DA
102
{ACAD_REACTORS
330
D9
102
}
330
21
100
AcDbEntity
  8
1
  6
Continuous
 62
     7
100
AcDbLine
 10
682.4153779877365
 20
1191.571566886549
 30
0.0
 11
682.4153779877365
 21
1195.94696410639
 31
0.0
  0
LINE
  5
DB
102
{ACAD_REACTORS
330
D9
102
}
330
21
100
AcDbEntity
  8
1
  6
Continuous
 62
     7
100
AcDbLine
 10
688.8487212423496
 20
1195.94696410639
 30
0.0
 11
688.8487212423496
 21
1191.795243815648
 31
0.0
  0
LINE
  5
DC
102
{ACAD_REACTORS
330
D9
102
}
330
21
100
AcDbEntity
  8
1
  6
Continuous
 62
     7
100
AcDbLine
 10
688.8487212423496
 20
1191.795243815648
 30
0.0
 11
688.8487212423496
 21
1191.571566886549
 31
0.0
  0
ARC
  5
DD
102
{ACAD_REACTORS
330
D9
102
}
330
21
100
AcDbEntity
  8
1
  6
Continuous
 62
     7
100
AcDbCircle
 10
685.634925100064
 20
1191.67035536026
 30
0.0
 40
3.242774095711378
100
AcDbArc
 50
357.7928306812057
 51
358.2542606088791
  0
LINE
  5
DE
102
{ACAD_REACTORS
330
D9
102
}
330
21
100
AcDbEntity
  8
1
  6
Continuous
 62
     7
100
AcDbLine
 10
682.4202356510197
 20
1191.571566886549
 30
0.0
 11
682.4153779877365
 21
1191.571566886549
 31
0.0
  0
ARC
  5
DF
102
{ACAD_REACTORS
330
D9
102
}
330
21
100
AcDbEntity
  8
1
  6
Continuous
 62
     7
100
AcDbCircle
 10
685.634925100064
 20
1191.67035536026
 30
0.0
 40
3.242774095711378
100
AcDbArc
 50
181.7457393911209
 51
357.7928306812057
  0
LINE
  5
E0
330
21
100
AcDbEntity
  8
1
  6
Continuous
 62
     7
100
AcDbLine
 10
666.9317308895919
 20
1195.970234202327
 30
0.0
 11
666.9317308895919
 21
1203.870234202327
 31
0.0
  0
LINE
  5
E1
330
21
100
AcDbEntity
  8
1
  6
Continuous
 62
     7
100
AcDbLine
 10
679.9317308895918
 20
1195.970234202327
 30
0.0
 11
679.9317308895918
 21
1203.870234202327
 31
0.0
  0
LINE
  5
E2
330
21
100
AcDbEntity
  8
1
  6
Continuous
 62
     7
100
AcDbLine
 10
666.9317308895919
 20
1203.870234202327
 30
0.0
 11
679.9317308895918
 21
1203.870234202327
 31
0.0
  0
LWPOLYLINE
  5
E3
330
21
100
AcDbEntity
  8
1
  6
Continuous
 62
     7
100
AcDbPolyline
 90
        3
 70
     0
 43
0.0
 10
697.0865236719811
 20
1122.07296645827
 10
697.0865236719811
 20
1123.916068350113
 10
702.3876883213269
 20
1123.916068350113
  0
LWPOLYLINE
  5
E4
330
21
100
AcDbEntity
  8
1
  6
Continuous
 62
     7
100
AcDbPolyline
 90
        2
 70
     0
 43
0.0
 10
702.3876883213269
 20
1123.916068350113
 10
702.3876883213269
 20
1122.07296645827
  0
LINE
  5
E5
330
21
100
AcDbEntity
  8
1
  6
Continuous
 62
     7
100
AcDbLine
 10
726.7303926594133
 20
1117.970234202326
 30
0.0
 11
673.1094168959181
 21
1117.970234202326
 31
0.0
  0
LINE
  5
E6
330
21
100
AcDbEntity
  8
1
  6
Continuous
 62
     7
100
AcDbLine
 10
673.1094168959181
 20
1117.970234202326
 30
0.0
 11
673.1094168959181
 21
1118.478917769177
 31
0.0
  0
LINE
  5
E7
330
21
100
AcDbEntity
  8
1
  6
Continuous
 62
     7
100
AcDbLine
 10
673.1094168959181
 20
1118.478917769177
 30
0.0
 11
726.7303926594133
 21
1118.478917769177
 31
0.0
  0
LINE
  5
E8
330
21
100
AcDbEntity
  8
1
  6
Continuous
 62
     7
100
AcDbLine
 10
726.7303926594133
 20
1118.478917769177
 30
0.0
 11
726.7303926594133
 21
1117.970234202326
 31
0.0
  0
TEXT
  5
E9
330
21
100
AcDbEntity
  8
1
  6
Continuous
 62
     7
100
AcDbText
 10
680.3399830735564
 20
1160.863445900669
 30
0.0
 40
4.9983944197413
  1
LI-4-21/26-GS
 41
0.9917996493897598
  7
ARIAL
100
AcDbText
  0
LINE
  5
EA
330
21
100
AcDbEntity
  8
1
  6
Continuous
 62
     7
100
AcDbLine
 10
656.1653970900355
 20
1132.018003593006
 30
0.0
 11
656.1653970900355
 21
1131.154484339193
 31
0.0
  0
LINE
  5
EB
330
21
100
AcDbEntity
  8
1
  6
Continuous
 62
     7
100
AcDbLine
 10
656.1653970900355
 20
1131.154484339193
 30
0.0
 11
636.0037094598734
 21
1131.154484339193
 31
0.0
  0
LINE
  5
EC
330
21
100
AcDbEntity
  8
1
  6
Continuous
 62
     7
100
AcDbLine
 10
636.0037094598734
 20
1131.154484339193
 30
0.0
 11
636.0037094598734
 21
1131.932065128571
 31
0.0
  0
LINE
  5
ED
330
21
100
AcDbEntity
  8
1
  6
Continuous
 62
     7
100
AcDbLine
 10
636.0037094598734
 20
1131.932065128571
 30
0.0
 11
656.1653970900355
 21
1131.932065128571
 31
0.0
  0
LINE
  5
EE
330
21
100
AcDbEntity
  8
1
  6
Continuous
 62
     7
100
AcDbLine
 10
622.1247066921022
 20
890.2431201687015
 30
0.0
 11
670.1647066921022
 21
890.2431201687015
 31
0.0
  0
LWPOLYLINE
  5
EF
330
21
100
AcDbEntity
  8
1
  6
Continuous
 62
     7
100
AcDbPolyline
 90
        8
 70
     1
 43
0.0
 10
669.5605262673353
 20
883.9237808954237
 42
0.4142135623730884
 10
668.6788108169613
 20
884.8054963457974
 10
656.84818216045
 20
884.8054963457974
 42
0.4142135623730922
 10
655.9664667100764
 20
883.9237808954237
 10
655.9664667100764
 20
882.6663096723363
 42
0.4142135623730884
 10
656.84818216045
 20
881.7845942219621
 10
668.6788108169613
 20
881.7845942219621
 42
0.4142135623730884
 10
669.5605262673353
 20
882.6663096723363
  0
LINE
  5
F0
330
21
100
AcDbEntity
  8
1
  6
Continuous
 62
     9
100
AcDbLine
 10
636.1447066921023
 20
1034.763361903717
 30
0.0
 11
636.1447066921023
 21
890.2431201687015
 31
0.0
  0
LINE
  5
F1
330
21
100
AcDbEntity
  8
1
  6
Continuous
 62
     7
100
AcDbLine
 10
670.1644038271837
 20
983.8001034470154
 30
0.0
 11
665.5495251507447
 21
979.0170084176095
 31
0.0
  0
LINE
  5
F2
330
21
100
AcDbEntity
  8
1
  6
Continuous
 62
     7
100
AcDbLine
 10
665.5495251507447
 20
979.0170084176095
 30
0.0
 11
660.0951185382645
 21
973.77238667484
 31
0.0
  0
LINE
  5
F3
330
21
100
AcDbEntity
  8
1
  6
Continuous
 62
     7
100
AcDbLine
 10
660.0951185382641
 20
973.77238667484
 30
0.0
 11
655.6852727490475
 21
971.4647531080212
 31
0.0
  0
LINE
  5
F4
330
21
100
AcDbEntity
  8
1
  6
Continuous
 62
     7
100
AcDbLine
 10
655.6852727490475
 20
971.4647531080212
 30
0.0
 11
670.1228353104398
 21
971.4647531080212
 31
0.0
  0
LINE
  5
F5
330
21
100
AcDbEntity
  8
1
  6
Continuous
 62
     7
100
AcDbLine
 10
666.3591529887164
 20
979.8561478964527
 30
0.0
 11
670.1856029434574
 21
979.8561478964527
 31
0.0
  0
CIRCLE
  5
F6
330
21
100
AcDbEntity
  8
1
  6
Continuous
 62
     7
100
AcDbCircle
 10
668.6754019450516
 20
938.1905430224241
 30
0.0
 40
1.223245483550002
  0
LINE
  5
F7
330
21
100
AcDbEntity
  8
1
  6
Continuous
 62
     7
100
AcDbLine
 10
670.6960545547259
 20
983.8001034470154
 30
0.0
 11
672.4304688772587
 21
983.8001034470154
 31
0.0
  0
LINE
  5
F8
330
21
100
AcDbEntity
  8
1
  6
Continuous
 62
     7
100
AcDbLine
 10
727.9673239857711
 20
983.8001034470154
 30
0.0
 11
726.7423668580711
 21
974.0004464254162
 31
0.0
  0
LINE
  5
F9
330
21
100
AcDbEntity
  8
1
  6
Continuous
 62
     7
100
AcDbLine
 10
726.7563583793414
 20
974.0004464254159
 30
0.0
 11
727.5110091602283
 21
971.2130112643684
 31
0.0
  0
LINE
  5
FA
330
21
100
AcDbEntity
  8
1
  6
Continuous
 62
     7
100
AcDbLine
 10
672.4304688772587
 20
983.8001034470154
 30
0.0
 11
673.6304268799036
 21
974.0004464254159
 31
0.0
  0
LINE
  5
FB
330
21
100
AcDbEntity
  8
1
  6
Continuous
 62
     7
100
AcDbLine
 10
673.6304268799036
 20
974.0004464254159
 30
0.0
 11
672.8552505045013
 21
971.2130112643684
 31
0.0
  0
LINE
  5
FC
330
21
100
AcDbEntity
  8
1
  6
Continuous
 62
     7
100
AcDbLine
 10
672.4304688772587
 20
983.8001034470154
 30
0.0
 11
670.1856029434574
 21
979.8561478964527
 31
0.0
  0
LINE
  5
FD
330
21
100
AcDbEntity
  8
1
  6
Continuous
 62
     7
100
AcDbLine
 10
727.9673239857711
 20
983.8001034470154
 30
0.0
 11
729.6456029434574
 21
980.2337606619319
 31
0.0
  0
LINE
  5
FE
330
21
100
AcDbEntity
  8
1
  6
Continuous
 62
     7
100
AcDbLine
 10
729.6456029434574
 20
980.2337606619319
 30
0.0
 11
729.6456029434574
 21
970.583656655236
 31
0.0
  0
LINE
  5
FF
330
21
100
AcDbEntity
  8
1
  6
Continuous
 62
     7
100
AcDbLine
 10
670.1644038271837
 20
983.8001034470154
 30
0.0
 11
672.4304688772587
 21
983.8001034470154
 31
0.0
  0
LINE
  5
100
330
21
100
AcDbEntity
  8
1
  6
Continuous
 62
     7
100
AcDbLine
 10
673.6304268799036
 20
974.0004464254159
 30
0.0
 11
726.7563583793414
 21
974.0004464254159
 31
0.0
  0
LINE
  5
101
330
21
100
AcDbEntity
  8
1
  6
Continuous
 62
     7
100
AcDbLine
 10
672.8343542531462
 20
971.2130112643684
 30
0.0
 11
672.8343542531462
 21
868.5000093045005
 31
0.0
  0
LINE
  5
102
330
21
100
AcDbEntity
  8
1
  6
Continuous
 62
     7
100
AcDbLine
 10
727.4901129088732
 20
971.2130112643684
 30
0.0
 11
727.4901129088732
 21
868.5000093045005
 31
0.0
  0
TEXT
  5
104
102
{ACAD_REACTORS
330
103
102
}
330
21
100
AcDbEntity
  8
1
  6
Continuous
 62
     7
100
AcDbText
 10
726.9884164978498
 20
896.6081564527961
 30
0.0
 40
3.997567239488905
  1
SOLVIS
 50
90.00000000000005
 41
1.283320504288475
  7
ARIALBLACK
100
AcDbText
  0
ARC
  5
105
102
{ACAD_REACTORS
330
103
102
}
330
21
100
AcDbEntity
  8
1
  6
Continuous
 62
     7
100
AcDbCircle
 10
720.7356536043917
 20
897.0973143783169
 30
0.0
 40
7.702248677487667
100
AcDbArc
 50
100.5650764672607
 51
336.6306133876712
  0
LINE
  5
106
102
{ACAD_REACTORS
330
103
102
}
330
21
100
AcDbEntity
  8
1
  6
Continuous
 62
     7
100
AcDbLine
 10
719.3234294624537
 20
904.6689890717244
 30
0.0
 11
719.3234294624537
 21
905.688783570357
 31
0.0
  0
ARC
  5
107
102
{ACAD_REACTORS
330
103
102
}
330
21
100
AcDbEntity
  8
1
  6
Continuous
 62
     7
100
AcDbCircle
 10
720.76772929118
 20
896.8722872803363
 30
0.0
 40
8.934014149709337
100
AcDbArc
 50
99.30343782452675
 51
341.3572402394312
  0
LINE
  5
108
102
{ACAD_REACTORS
330
103
102
}
330
21
100
AcDbEntity
  8
1
  6
Continuous
 62
     7
100
AcDbLine
 10
727.8060613480046
 20
894.0421598766723
 30
0.0
 11
729.2329766762468
 21
894.0163819008066
 31
0.0
  0
HATCH
  5
109
102
{ACAD_REACTORS
330
103
102
}
330
21
100
AcDbEntity
  8
1
  6
Continuous
 62
     1
100
AcDbHatch
 10
0.0
 20
0.0
 30
0.0
210
0.0
220
0.0
230
1.0
  2
SOLID
 70
     1
 71
     0
 91
        1
 92
        3
 72
     1
 73
     1
 93
        4
 10
727.8060613480046
 20
894.0421598766723
 42
-1.665358010494822
 10
719.3234294624537
 20
904.6689890717244
 42
0.0
 10
719.3234294624537
 20
905.688783570357
 42
1.768462565575793
 10
729.2329766762468
 20
894.0163819008066
 42
0.0
 97
        0
 75
     0
 76
     1
 98
        1
 10
0.0
 20
0.0
  0
TEXT
  5
10B
102
{ACAD_REACTORS
330
10A
102
}
330
21
100
AcDbEntity
  8
1
  6
Continuous
 62
     8
100
AcDbText
 10
674.0536623018502
 20
974.5191772202467
 30
0.0
 40
1.763481132934151
  1
SolvisLino 
 41
1.439779877320134
  7
ARIALUNICODEMS
100
AcDbText
  0
LINE
  5
10C
102
{ACAD_REACTORS
330
10A
102
}
330
21
100
AcDbEntity
  8
1
  6
Continuous
 62
     8
100
AcDbLine
 10
691.2990764413023
 20
976.4204572186725
 30
0.0
 11
690.3618265778681
 21
975.1779091307371
 31
0.0
  0
LINE
  5
10D
102
{ACAD_REACTORS
330
10A
102
}
330
21
100
AcDbEntity
  8
1
  6
Continuous
 62
     8
100
AcDbLine
 10
690.3618265778681
 20
975.1779091307371
 30
0.0
 11
692.0524431697417
 21
975.1779091307371
 31
0.0
  0
LINE
  5
10E
102
{ACAD_REACTORS
330
10A
102
}
330
21
100
AcDbEntity
  8
1
  6
Continuous
 62
     8
100
AcDbLine
 10
691.5270540627533
 20
975.7388818912902
 30
0.0
 11
691.54460127755
 21
974.7216814831848
 31
0.0
  0
LINE
  5
10F
330
21
100
AcDbEntity
  8
1
  6
Continuous
 62
     9
100
AcDbLine
 10
656.1447066921023
 20
890.2431201687015
 30
0.0
 11
656.1447066921023
 21
1034.763361903717
 31
0.0
  0
HATCH
  5
110
330
21
100
AcDbEntity
  8
1
  6
Continuous
 62
     7
100
AcDbHatch
 10
0.0
 20
0.0
 30
0.0
210
0.0
220
0.0
230
1.0
  2
SOLID
 70
     1
 71
     0
 91
        1
 92
        3
 72
     1
 73
     1
 93
        2
 10
669.8986474286014
 20
938.1905430224241
 42
0.9999999999999998
 10
667.4521564615014
 20
938.1905430224241
 42
0.9999999999999998
 97
        0
 75
     0
 76
     1
 98
        1
 10
0.0
 20
0.0
  0
LINE
  5
111
330
21
100
AcDbEntity
  8
1
  6
Continuous
 62
     7
100
AcDbLine
 10
670.1228353104398
 20
971.4647531080212
 30
0.0
 11
670.1647922843822
 21
971.4647531080212
 31
0.0
  0
LINE
  5
112
330
21
100
AcDbEntity
  8
1
  6
Continuous
 62
     7
100
AcDbLine
 10
670.1647066921022
 20
979.8561478964527
 30
0.0
 11
670.1647066921022
 21
868.5000093045005
 31
0.0
  0
LINE
  5
113
330
21
100
AcDbEntity
  8
1
  6
Continuous
 62
     7
100
AcDbLine
 10
670.1647066921022
 20
868.4926248770869
 30
0.0
 11
622.1247066921022
 21
868.4926248770869
 31
0.0
  0
LINE
  5
114
330
21
100
AcDbEntity
  8
1
  6
Continuous
 62
     7
100
AcDbLine
 10
622.1247066921022
 20
868.4926248770869
 30
0.0
 11
622.1247066921022
 21
1037.229193976338
 31
0.0
  0
LINE
  5
115
330
21
100
AcDbEntity
  8
1
  6
Continuous
 62
     7
100
AcDbLine
 10
670.1647066921022
 20
1037.229193976338
 30
0.0
 11
670.1647066921022
 21
983.8001034470154
 31
0.0
  0
LINE
  5
116
330
21
100
AcDbEntity
  8
1
  6
Continuous
 62
     7
100
AcDbLine
 10
622.1247066921022
 20
889.6729509320032
 30
0.0
 11
670.1647066921022
 21
889.6729509320032
 31
0.0
  0
LINE
  5
117
330
21
100
AcDbEntity
  8
1
  6
Continuous
 62
     7
100
AcDbLine
 10
670.1856029434574
 20
971.2130112643684
 30
0.0
 11
729.6456029434574
 21
971.2130112643684
 31
0.0
  0
LINE
  5
118
330
21
100
AcDbEntity
  8
1
  6
Continuous
 62
     7
100
AcDbLine
 10
729.6247066921023
 20
972.1337349416298
 30
0.0
 11
729.6247066921023
 21
868.5000093045005
 31
0.0
  0
LINE
  5
119
330
21
100
AcDbEntity
  8
1
  6
Continuous
 62
     7
100
AcDbLine
 10
729.6247066921023
 20
868.5000093045005
 30
0.0
 11
670.1647066921022
 21
868.5000093045005
 31
0.0
  0
LINE
  5
11A
330
21
100
AcDbEntity
  8
1
  6
Continuous
 62
     7
100
AcDbLine
 10
623.88813759285
 20
1038.992624877087
 30
0.0
 11
668.4012757913543
 21
1038.992624877087
 31
0.0
  0
LINE
  5
11B
330
21
100
AcDbEntity
  8
1
  6
Continuous
 62
     7
100
AcDbLine
 10
622.1247066921022
 20
1034.763361903717
 30
0.0
 11
670.1647066921022
 21
1034.763361903717
 31
0.0
  0
LINE
  5
11C
330
21
100
AcDbEntity
  8
1
  6
Continuous
 62
     7
100
AcDbLine
 10
656.4640171125606
 20
1034.763361903717
 30
0.0
 11
660.6932800859302
 21
1034.763361903717
 31
0.0
  0
LINE
  5
11D
330
21
100
AcDbEntity
  8
1
  6
Continuous
 62
     7
100
AcDbLine
 10
622.1247066921022
 20
1037.229193976338
 30
0.0
 11
623.88813759285
 21
1038.992624877087
 31
0.0
  0
LINE
  5
11E
330
21
100
AcDbEntity
  8
1
  6
Continuous
 62
     7
100
AcDbLine
 10
668.4012757913543
 20
1038.992624877087
 30
0.0
 11
670.1647066921022
 21
1037.229193976338
 31
0.0
  0
LINE
  5
11F
330
21
100
AcDbEntity
  8
1
  6
Continuous
 62
     7
100
AcDbLine
 10
672.4304688772587
 20
983.8001034470154
 30
0.0
 11
727.9673239857711
 21
983.8001034470154
 31
0.0
  0
LINE
  5
120
330
21
100
AcDbEntity
  8
1
  6
Continuous
 62
     7
100
AcDbLine
 10
670.1647066921022
 20
868.5000093045005
 30
0.0
 11
670.1647066921022
 21
868.4926248770869
 31
0.0
  0
LINE
  5
121
330
21
100
AcDbEntity
  8
1
  6
Continuous
 62
     7
100
AcDbLine
 10
670.1647066921022
 20
868.5000093045005
 30
0.0
 11
668.367524736552
 21
868.5000093045005
 31
0.0
  0
CIRCLE
  5
123
102
{ACAD_REACTORS
330
122
102
}
330
21
100
AcDbEntity
  8
1
  6
Continuous
 62
     7
100
AcDbCircle
 10
701.1550562323513
 20
976.4899152642641
 30
0.0
 40
0.9109174840763538
  0
CIRCLE
  5
124
102
{ACAD_REACTORS
330
122
102
}
330
21
100
AcDbEntity
  8
1
  6
Continuous
 62
     7
100
AcDbCircle
 10
701.1208765981177
 20
976.4963572717917
 30
0.0
 40
0.6433644131130616
  0
HATCH
  5
125
102
{ACAD_REACTORS
330
122
102
}
330
21
100
AcDbEntity
  8
1
  6
Continuous
 62
   252
100
AcDbHatch
 10
0.0
 20
0.0
 30
0.0
210
0.0
220
0.0
230
1.0
  2
SOLID
 70
     1
 71
     0
 91
        1
 92
        3
 72
     1
 73
     1
 93
        2
 10
701.7642410112304
 20
976.4963572717917
 42
1.0
 10
700.4775121850045
 20
976.4963572717917
 42
0.9999999999999998
 97
        0
 75
     0
 76
     1
 98
        1
 10
0.0
 20
0.0
  0
CIRCLE
  5
126
102
{ACAD_REACTORS
330
122
102
}
330
21
100
AcDbEntity
  8
1
  6
Continuous
 62
     7
100
AcDbCircle
 10
698.5889132590989
 20
976.5231941143479
 30
0.0
 40
0.8962045694811465
  0
CIRCLE
  5
127
102
{ACAD_REACTORS
330
122
102
}
330
21
100
AcDbEntity
  8
1
  6
Continuous
 62
     7
100
AcDbCircle
 10
698.5552856858892
 20
976.5295320721582
 30
0.0
 40
0.6329729497487083
  0
HATCH
  5
128
102
{ACAD_REACTORS
330
122
102
}
330
21
100
AcDbEntity
  8
1
  6
Continuous
 62
   252
100
AcDbHatch
 10
0.0
 20
0.0
 30
0.0
210
0.0
220
0.0
230
1.0
  2
SOLID
 70
     1
 71
     0
 91
        1
 92
        3
 72
     1
 73
     1
 93
        2
 10
699.1882586356378
 20
976.5295320721582
 42
1.0
 10
697.9223127361402
 20
976.5295320721582
 42
0.9999999999999998
 97
        0
 75
     0
 76
     1
 98
        1
 10
0.0
 20
0.0
  0
LWPOLYLINE
  5
129
102
{ACAD_REACTORS
330
122
102
}
330
21
100
AcDbEntity
  8
1
  6
Continuous
 62
     7
100
AcDbPolyline
 90
        5
 70
     0
 43
0.0
 10
694.1808757626725
 20
982.1295446486795
 10
705.509258727055
 20
982.1295446486795
 10
705.509258727055
 20
974.8290311827442
 10
694.1808757626725
 20
974.8290311827442
 10
694.1808757626725
 20
982.1295446486795
  0
LWPOLYLINE
  5
12A
102
{ACAD_REACTORS
330
122
102
}
330
21
100
AcDbEntity
  8
1
  6
Continuous
 62
     7
100
AcDbPolyline
 90
        4
 70
     1
 43
0.0
 10
696.9512746700228
 20
981.0146166660418
 10
702.8528230559843
 20
981.0146166660418
 10
702.8528230559843
 20
977.9795346389757
 10
696.9512746700228
 20
977.9795346389757
  0
CIRCLE
  5
12B
102
{ACAD_REACTORS
330
122
102
}
330
21
100
AcDbEntity
  8
1
  6
Continuous
 62
     7
100
AcDbCircle
 10
695.6310760476128
 20
979.3743067156512
 30
0.0
 40
0.8962045694811465
  0
CIRCLE
  5
12C
102
{ACAD_REACTORS
330
122
102
}
330
21
100
AcDbEntity
  8
1
  6
Continuous
 62
     7
100
AcDbCircle
 10
695.5974484744033
 20
979.3806446734617
 30
0.0
 40
0.6329729497487083
  0
HATCH
  5
12D
102
{ACAD_REACTORS
330
122
102
}
330
21
100
AcDbEntity
  8
1
  6
Continuous
 62
   252
100
AcDbHatch
 10
0.0
 20
0.0
 30
0.0
210
0.0
220
0.0
230
1.0
  2
SOLID
 70
     1
 71
     0
 91
        1
 92
        3
 72
     1
 73
     1
 93
        2
 10
696.230421424152
 20
979.3806446734617
 42
1.0
 10
694.9644755246547
 20
979.3806446734617
 42
0.9999999999999998
 97
        0
 75
     0
 76
     1
 98
        1
 10
0.0
 20
0.0
  0
CIRCLE
  5
12E
102
{ACAD_REACTORS
330
122
102
}
330
21
100
AcDbEntity
  8
1
  6
Continuous
 62
     7
100
AcDbCircle
 10
704.1777038953552
 20
979.4513033629282
 30
0.0
 40
0.8962045694811465
  0
CIRCLE
  5
12F
102
{ACAD_REACTORS
330
122
102
}
330
21
100
AcDbEntity
  8
1
  6
Continuous
 62
     7
100
AcDbCircle
 10
704.1440763221458
 20
979.4576413207385
 30
0.0
 40
0.6329729497487083
  0
HATCH
  5
130
102
{ACAD_REACTORS
330
122
102
}
330
21
100
AcDbEntity
  8
1
  6
Continuous
 62
   252
100
AcDbHatch
 10
0.0
 20
0.0
 30
0.0
210
0.0
220
0.0
230
1.0
  2
SOLID
 70
     1
 71
     0
 91
        1
 92
        3
 72
     1
 73
     1
 93
        2
 10
704.7770492718947
 20
979.4576413207385
 42
1.0
 10
703.5111033723971
 20
979.4576413207385
 42
0.9999999999999998
 97
        0
 75
     0
 76
     1
 98
        1
 10
0.0
 20
0.0
  0
CIRCLE
  5
131
102
{ACAD_REACTORS
330
122
102
}
330
21
100
AcDbEntity
  8
1
  6
Continuous
 62
     7
100
AcDbCircle
 10
703.5095135192982
 20
976.4887286089326
 30
0.0
 40
0.8962045694811465
  0
CIRCLE
  5
132
102
{ACAD_REACTORS
330
122
102
}
330
21
100
AcDbEntity
  8
1
  6
Continuous
 62
     7
100
AcDbCircle
 10
703.4758859460888
 20
976.4950665667429
 30
0.0
 40
0.6329729497487083
  0
HATCH
  5
133
102
{ACAD_REACTORS
330
122
102
}
330
21
100
AcDbEntity
  8
1
  6
Continuous
 62
   252
100
AcDbHatch
 10
0.0
 20
0.0
 30
0.0
210
0.0
220
0.0
230
1.0
  2
SOLID
 70
     1
 71
     0
 91
        1
 92
        3
 72
     1
 73
     1
 93
        2
 10
704.1088588958374
 20
976.4950665667429
 42
1.0
 10
702.8429129963402
 20
976.4950665667429
 42
0.9999999999999998
 97
        0
 75
     0
 76
     1
 98
        1
 10
0.0
 20
0.0
  0
CIRCLE
  5
134
102
{ACAD_REACTORS
330
122
102
}
330
21
100
AcDbEntity
  8
1
  6
Continuous
 62
     7
100
AcDbCircle
 10
696.1316139782691
 20
976.5420202698949
 30
0.0
 40
0.8962045694811465
  0
CIRCLE
  5
135
102
{ACAD_REACTORS
330
122
102
}
330
21
100
AcDbEntity
  8
1
  6
Continuous
 62
     7
100
AcDbCircle
 10
696.0979864050596
 20
976.5483582277054
 30
0.0
 40
0.6329729497487083
  0
HATCH
  5
136
102
{ACAD_REACTORS
330
122
102
}
330
21
100
AcDbEntity
  8
1
  6
Continuous
 62
   252
100
AcDbHatch
 10
0.0
 20
0.0
 30
0.0
210
0.0
220
0.0
230
1.0
  2
SOLID
 70
     1
 71
     0
 91
        1
 92
        3
 72
     1
 73
     1
 93
        2
 10
696.7309593548082
 20
976.5483582277054
 42
1.0
 10
695.4650134553109
 20
976.5483582277054
 42
0.9999999999999998
 97
        0
 75
     0
 76
     1
 98
        1
 10
0.0
 20
0.0
  0
HATCH
  5
137
102
{ACAD_REACTORS
330
122
102
}
330
21
100
AcDbEntity
  8
1
  6
Continuous
 62
   251
100
AcDbHatch
 10
0.0
 20
0.0
 30
0.0
210
0.0
220
0.0
230
1.0
  2
SOLID
 70
     1
 71
     0
 91
        1
 92
        3
 72
     0
 73
     1
 93
        4
 10
702.8528230559843
 20
977.9795346389757
 10
702.8528230559843
 20
981.0146166660418
 10
696.9512746700228
 20
981.0146166660418
 10
696.9512746700228
 20
977.9795346389757
 97
        0
 75
     0
 76
     1
 98
        1
 10
0.0
 20
0.0
  0
TEXT
  5
138
330
21
100
AcDbEntity
  8
1
  6
Continuous
 62
     7
100
AcDbText
 10
867.4149567425589
 20
964.8718812919653
 30
0.0
 40
4.9983944197413
  1
LI-4-21/26-GS
 41
0.9917996493897598
  7
ARIAL
100
AcDbText
  0
TEXT
  5
139
330
21
100
AcDbEntity
  8
1
  6
Continuous
 62
     7
100
AcDbText
 10
679.4149567425588
 20
955.8718812919654
 30
0.0
 40
4.9983944197413
  1
LI-4-21/26-GS
 41
0.9917996493897598
  7
ARIAL
100
AcDbText
  0
LINE
  5
13A
330
21
100
AcDbEntity
  8
1
  6
Continuous
 62
     7
100
AcDbLine
 10
672.1597546800816
 20
1129.699938687559
 30
0.0
 11
670.1794345524523
 21
1131.363850117695
 31
0.0
  0
LINE
  5
13B
330
21
100
AcDbEntity
  8
1
  6
Continuous
 62
     7
100
AcDbLine
 10
672.1597546800816
 20
1131.082265106441
 30
0.0
 11
670.1794345524523
 21
1132.925366998284
 31
0.0
  0
LINE
  5
13C
330
21
100
AcDbEntity
  8
1
  6
Continuous
 62
     7
100
AcDbLine
 10
672.0430906733485
 20
1136.141977566003
 30
0.0
 11
670.0627705457194
 21
1137.217120336244
 31
0.0
  0
LINE
  5
13D
330
21
100
AcDbEntity
  8
1
  6
Continuous
 62
     7
100
AcDbLine
 10
921.3954387152785
 20
925.6668480642129
 30
0.0
 11
843.3954387152784
 21
925.6668480642129
 31
0.0
  0
LWPOLYLINE
  5
13E
330
21
100
AcDbEntity
  8
1
  6
Continuous
 62
     7
100
AcDbPolyline
 90
        5
 70
     0
 43
0.0
 10
843.3954387152784
 20
972.0183389504663
 10
849.695476388384
 20
972.0183389504663
 10
849.695476388384
 20
870.9720888184341
 10
843.3954387152784
 20
870.9720888184341
 10
843.3954387152784
 20
972.0183389504663
  0
LINE
  5
13F
330
21
100
AcDbEntity
  8
1
  6
Continuous
 62
     7
100
AcDbLine
 10
850.3954805742846
 20
972.9453687681914
 30
0.0
 11
843.7362365965348
 21
972.9453687681914
 31
0.0
  0
LINE
  5
140
330
21
100
AcDbEntity
  8
1
  6
Continuous
 62
     7
100
AcDbLine
 10
843.7362365965348
 20
972.9453687681914
 30
0.0
 11
843.7362365965348
 21
975.1080270933009
 31
0.0
  0
LWPOLYLINE
  5
141
330
21
100
AcDbEntity
  8
1
  6
Continuous
 62
     7
100
AcDbPolyline
 90
        4
 70
     1
 43
0.0
 10
854.2455035967384
 20
870.6630788791922
 10
864.0455621993472
 20
870.6630788791922
 10
864.0455621993472
 20
868.5000093045005
 10
854.2455035967384
 20
868.5000093045005
  0
LWPOLYLINE
  5
142
330
21
100
AcDbEntity
  8
1
  6
Continuous
 62
     7
100
AcDbPolyline
 90
        4
 70
     1
 43
0.0
 10
905.646722377725
 20
870.6630788791922
 10
915.0967788873835
 20
870.6630788791922
 10
915.0967788873835
 20
868.5000093045005
 10
905.646722377725
 20
868.5000093045005
  0
LINE
  5
143
330
21
100
AcDbEntity
  8
1
  6
Continuous
 62
     7
100
AcDbLine
 10
858.4084824202173
 20
1039.0000093045
 30
0.0
 11
903.1272244322687
 21
1039.0000093045
 31
0.0
  0
LINE
  5
144
330
21
100
AcDbEntity
  8
1
  6
Continuous
 62
     7
100
AcDbLine
 10
904.8906553330162
 20
1037.236578403752
 30
0.0
 11
904.8906553330162
 21
983.8000093045005
 31
0.0
  0
LINE
  5
145
330
21
100
AcDbEntity
  8
1
  6
Continuous
 62
     7
100
AcDbLine
 10
856.6450515194695
 20
983.8000093045005
 30
0.0
 11
856.6450515194695
 21
1037.236578403752
 31
0.0
  0
LINE
  5
146
330
21
100
AcDbEntity
  8
1
  6
Continuous
 62
     7
100
AcDbLine
 10
921.3954387152785
 20
983.8000093045005
 30
0.0
 11
856.4457259282177
 21
983.8000093045005
 31
0.0
  0
LINE
  5
147
330
21
100
AcDbEntity
  8
1
  6
Continuous
 62
     7
100
AcDbLine
 10
921.3954387152785
 20
980.3616073099922
 30
0.0
 11
921.3954387152785
 21
983.8000093045005
 31
0.0
  0
LINE
  5
148
330
21
100
AcDbEntity
  8
1
  6
Continuous
 62
     7
100
AcDbLine
 10
849.695476388384
 20
972.9453687681914
 30
0.0
 11
849.695476388384
 21
870.6630788791922
 31
0.0
  0
LINE
  5
149
330
21
100
AcDbEntity
  8
1
  6
Continuous
 62
     7
100
AcDbLine
 10
849.695476388384
 20
870.6630788791922
 30
0.0
 11
921.3954387152785
 21
870.6630788791922
 31
0.0
  0
LINE
  5
14A
330
21
100
AcDbEntity
  8
1
  6
Continuous
 62
     7
100
AcDbLine
 10
921.3954387152785
 20
870.6630788791922
 30
0.0
 11
921.3954387152785
 21
980.6706172492338
 31
0.0
  0
LINE
  5
14B
330
21
100
AcDbEntity
  8
1
  6
Continuous
 62
     7
100
AcDbLine
 10
921.3954387152785
 20
949.697969115316
 30
0.0
 11
929.2929591007309
 21
949.697969115316
 31
0.0
  0
LINE
  5
14C
330
21
100
AcDbEntity
  8
1
  6
Continuous
 62
     7
100
AcDbLine
 10
929.2929591007309
 20
949.697969115316
 30
0.0
 11
929.2929591007309
 21
936.702049493685
 31
0.0
  0
LINE
  5
14D
330
21
100
AcDbEntity
  8
1
  6
Continuous
 62
     7
100
AcDbLine
 10
929.2929591007309
 20
936.702049493685
 30
0.0
 11
921.3954387152785
 21
936.702049493685
 31
0.0
  0
LINE
  5
14E
330
21
100
AcDbEntity
  8
1
  6
Continuous
 62
     7
100
AcDbLine
 10
909.8453696479177
 20
986.5810987576761
 30
0.0
 11
917.1954135998744
 21
986.5810987576761
 31
0.0
  0
LINE
  5
14F
330
21
100
AcDbEntity
  8
1
  6
Continuous
 62
     7
100
AcDbLine
 10
917.1954135998744
 20
986.5810987576761
 30
0.0
 11
917.1954135998744
 21
983.8000093045005
 31
0.0
  0
LINE
  5
150
330
21
100
AcDbEntity
  8
1
  6
Continuous
 62
     7
100
AcDbLine
 10
909.8453696479177
 20
983.8000093045005
 30
0.0
 11
909.8453696479177
 21
986.5810987576761
 31
0.0
  0
HATCH
  5
151
330
21
100
AcDbEntity
  8
1
  6
Continuous
 62
   252
100
AcDbHatch
 10
0.0
 20
0.0
 30
0.0
210
0.0
220
0.0
230
1.0
  2
SOLID
 70
     1
 71
     0
 91
        1
 92
        3
 72
     0
 73
     1
 93
        4
 10
864.0455621993472
 20
868.5000093045005
 10
864.0455621993472
 20
870.6630788791922
 10
854.2455035967384
 20
870.6630788791922
 10
854.2455035967384
 20
868.5000093045005
 97
        0
 75
     0
 76
     1
 98
        1
 10
0.0
 20
0.0
  0
HATCH
  5
152
330
21
100
AcDbEntity
  8
1
  6
Continuous
 62
   252
100
AcDbHatch
 10
0.0
 20
0.0
 30
0.0
210
0.0
220
0.0
230
1.0
  2
SOLID
 70
     1
 71
     0
 91
        1
 92
        3
 72
     0
 73
     1
 93
        4
 10
915.0954010421726
 20
868.8090192437424
 10
915.0954010421726
 20
870.6630788791922
 10
905.6453445325141
 20
870.6630788791922
 10
905.6453445325141
 20
868.8090192437424
 97
        0
 75
     0
 76
     1
 98
        1
 10
0.0
 20
0.0
  0
HATCH
  5
153
330
21
100
AcDbEntity
  8
1
  6
Continuous
 62
   253
100
AcDbHatch
 10
0.0
 20
0.0
 30
0.0
210
0.0
220
0.0
230
1.0
  2
SOLID
 70
     1
 71
     0
 91
        1
 92
        3
 72
     0
 73
     1
 93
        4
 10
917.1954135998744
 20
983.8000093045005
 10
917.1954135998744
 20
986.5810987576761
 10
909.8453696479177
 20
986.5810987576761
 10
909.8453696479177
 20
983.8000093045005
 97
        0
 75
     0
 76
     1
 98
        1
 10
0.0
 20
0.0
  0
HATCH
  5
154
330
21
100
AcDbEntity
  8
1
  6
Continuous
 62
   252
100
AcDbHatch
 10
0.0
 20
0.0
 30
0.0
210
0.0
220
0.0
230
1.0
  2
SOLID
 70
     1
 71
     0
 91
        1
 92
        3
 72
     0
 73
     1
 93
        4
 10
915.0967788873835
 20
868.5000093045005
 10
915.0967788873835
 20
870.6630788791922
 10
905.646722377725
 20
870.6630788791922
 10
905.646722377725
 20
868.5000093045005
 97
        0
 75
     0
 76
     1
 98
        1
 10
0.0
 20
0.0
  0
HATCH
  5
155
330
21
100
AcDbEntity
  8
1
  6
Continuous
 62
   252
100
AcDbHatch
 10
0.0
 20
0.0
 30
0.0
210
0.0
220
0.0
230
1.0
  2
SOLID
 70
     1
 71
     0
 91
        1
 92
        3
 72
     0
 73
     1
 93
        4
 10
915.0967788873835
 20
868.5000093045005
 10
915.0967788873835
 20
870.6630788791922
 10
905.646722377725
 20
870.6630788791922
 10
905.646722377725
 20
868.5000093045005
 97
        0
 75
     0
 76
     1
 98
        1
 10
0.0
 20
0.0
  0
LINE
  5
156
330
21
100
AcDbEntity
  8
1
  6
Continuous
 62
     7
100
AcDbLine
 10
856.6450515194695
 20
1034.770746331131
 30
0.0
 11
904.8906553330162
 21
1034.770746331131
 31
0.0
  0
LINE
  5
157
330
21
100
AcDbEntity
  8
1
  6
Continuous
 62
     7
100
AcDbLine
 10
891.189965753475
 20
1034.770746331131
 30
0.0
 11
895.4192287268444
 21
1034.770746331131
 31
0.0
  0
LINE
  5
158
330
21
100
AcDbEntity
  8
1
  6
Continuous
 62
     7
100
AcDbLine
 10
856.6450515194695
 20
1037.236578403752
 30
0.0
 11
858.4084824202173
 21
1039.0000093045
 31
0.0
  0
LINE
  5
159
330
21
100
AcDbEntity
  8
1
  6
Continuous
 62
     7
100
AcDbLine
 10
903.1272244322687
 20
1039.0000093045
 30
0.0
 11
904.8906553330162
 21
1037.236578403752
 31
0.0
  0
LWPOLYLINE
  5
15B
102
{ACAD_REACTORS
330
15A
102
}
330
21
100
AcDbEntity
  8
1
  6
Continuous
 62
     7
100
AcDbPolyline
 90
        5
 70
     0
 43
0.0
 10
259.0075567248232
 20
1128.054011617662
 10
203.5585931512088
 20
1128.054011617662
 10
203.5585931512088
 20
1130.204297158145
 10
259.0075567248232
 20
1130.204297158145
 10
259.0075567248232
 20
1128.054011617662
  0
LWPOLYLINE
  5
15C
102
{ACAD_REACTORS
330
15A
102
}
330
21
100
AcDbEntity
  8
1
  6
Continuous
 62
     7
100
AcDbPolyline
 90
        4
 70
     1
 43
0.0
 10
259.0075567248232
 20
1130.050705333825
 10
203.7109254687189
 20
1130.050705333825
 10
203.7109254687189
 20
1134.658460063432
 10
259.0075567248232
 20
1134.658460063432
  0
LWPOLYLINE
  5
15D
102
{ACAD_REACTORS
330
15A
102
}
330
21
100
AcDbEntity
  8
1
  6
Continuous
 62
     7
100
AcDbPolyline
 90
        5
 70
     0
 43
0.0
 10
259.0075567248232
 20
1187.494047629588
 10
259.0075567248232
 20
1134.504868239111
 10
203.4062608336991
 20
1134.504868239111
 10
203.4062608336991
 20
1187.494047629588
 10
260.9878768524525
 20
1187.494047629588
  0
LINE
  5
15E
102
{ACAD_REACTORS
330
15A
102
}
330
21
100
AcDbEntity
  8
1
  6
Continuous
 62
     7
100
AcDbLine
 10
260.9878768524525
 20
1122.678297766454
 30
0.0
 11
260.9878768524525
 21
1187.494047629588
 31
0.0
  0
LINE
  5
15F
102
{ACAD_REACTORS
330
15A
102
}
330
21
100
AcDbEntity
  8
1
  6
Continuous
 62
     7
100
AcDbLine
 10
258.0935628197635
 20
1116.486716699756
 30
0.0
 11
260.9878768524525
 21
1122.678297766454
 31
0.0
  0
LINE
  5
160
102
{ACAD_REACTORS
330
15A
102
}
330
21
100
AcDbEntity
  8
1
  6
Continuous
 62
     7
100
AcDbLine
 10
258.0935628197638
 20
1116.995400266606
 30
0.0
 11
259.0075567248232
 21
1128.054011617662
 31
0.0
  0
LINE
  5
161
102
{ACAD_REACTORS
330
15A
102
}
330
21
100
AcDbEntity
  8
1
  6
Continuous
 62
     7
100
AcDbLine
 10
259.0075567248232
 20
1128.514787090623
 30
0.0
 11
260.9878768524525
 21
1130.178698520759
 31
0.0
  0
LINE
  5
162
102
{ACAD_REACTORS
330
15A
102
}
330
21
100
AcDbEntity
  8
1
  6
Continuous
 62
     7
100
AcDbLine
 10
259.0075567248232
 20
1129.897113509505
 30
0.0
 11
260.9878768524525
 21
1131.740215401348
 31
0.0
  0
LINE
  5
163
102
{ACAD_REACTORS
330
15A
102
}
330
21
100
AcDbEntity
  8
1
  6
Continuous
 62
     7
100
AcDbLine
 10
259.0075567248232
 20
1134.658460063432
 30
0.0
 11
260.9878768524525
 21
1135.733602833673
 31
0.0
  0
LINE
  5
164
102
{ACAD_REACTORS
330
15A
102
}
330
21
100
AcDbEntity
  8
1
  6
Continuous
 62
     7
100
AcDbLine
 10
204.4725870562686
 20
1116.995400266606
 30
0.0
 11
203.5585931512088
 21
1128.054011617662
 31
0.0
  0
LINE
  5
165
102
{ACAD_REACTORS
330
15A
102
}
330
21
100
AcDbEntity
  8
1
  6
Continuous
 62
     7
100
AcDbLine
 10
204.4725870562686
 20
1116.486716699756
 30
0.0
 11
201.5307659319883
 21
1122.678297766454
 31
0.0
  0
LINE
  5
166
102
{ACAD_REACTORS
330
15A
102
}
330
21
100
AcDbEntity
  8
1
  6
Continuous
 62
     7
100
AcDbLine
 10
201.5307659319883
 20
1122.678297766454
 30
0.0
 11
201.5307659319883
 21
1187.494047629588
 31
0.0
  0
CIRCLE
  5
167
102
{ACAD_REACTORS
330
15A
102
}
330
21
100
AcDbEntity
  8
1
  6
Continuous
 62
     7
100
AcDbCircle
 10
204.7772516912884
 20
1178.278538170374
 30
0.0
 40
6.493180375270454
  0
CIRCLE
  5
168
102
{ACAD_REACTORS
330
15A
102
}
330
21
100
AcDbEntity
  8
1
  6
Continuous
 62
     7
100
AcDbCircle
 10
204.7772516912884
 20
1178.278538170374
 30
0.0
 40
9.289584381551639
  0
CIRCLE
  5
169
102
{ACAD_REACTORS
330
15A
102
}
330
21
100
AcDbEntity
  8
1
  6
Continuous
 62
     7
100
AcDbCircle
 10
177.3574345395009
 20
1176.742619927172
 30
0.0
 40
3.521421478766321
  0
LINE
  5
16A
102
{ACAD_REACTORS
330
15A
102
}
330
21
100
AcDbEntity
  8
1
  6
Continuous
 62
     7
100
AcDbLine
 10
201.5307659319883
 20
1122.678297766454
 30
0.0
 11
187.4113674951564
 21
1122.678297766454
 31
0.0
  0
LINE
  5
16B
102
{ACAD_REACTORS
330
15A
102
}
330
21
100
AcDbEntity
  8
1
  6
Continuous
 62
     7
100
AcDbLine
 10
201.5307659319883
 20
1130.818664455426
 30
0.0
 11
196.9722538759809
 21
1130.818664455426
 31
0.0
  0
LINE
  5
16C
102
{ACAD_REACTORS
330
15A
102
}
330
21
100
AcDbEntity
  8
1
  6
Continuous
 62
     7
100
AcDbLine
 10
201.280884303337
 20
1144.027561346965
 30
0.0
 11
205.0819163263083
 21
1144.027561346965
 31
0.0
  0
LINE
  5
16D
102
{ACAD_REACTORS
330
15A
102
}
330
21
100
AcDbEntity
  8
1
  6
Continuous
 62
     7
100
AcDbLine
 10
205.0819163263083
 20
1144.027561346965
 30
0.0
 11
205.0819163263083
 21
1144.488336819926
 31
0.0
  0
LINE
  5
16E
102
{ACAD_REACTORS
330
15A
102
}
330
21
100
AcDbEntity
  8
1
  6
Continuous
 62
     7
100
AcDbLine
 10
205.0819163263083
 20
1144.488336819926
 30
0.0
 11
201.2881580059397
 21
1144.488336819926
 31
0.0
  0
LWPOLYLINE
  5
16F
102
{ACAD_REACTORS
330
15A
102
}
330
21
100
AcDbEntity
  8
1
  6
Continuous
 62
     7
100
AcDbPolyline
 90
        4
 70
     0
 43
0.0
 10
256.8749042796842
 20
1187.494047629588
 10
256.8749042796842
 20
1183.211343361633
 10
247.4303005940686
 20
1183.211343361633
 10
247.4303005940686
 20
1187.494047629588
  0
LWPOLYLINE
  5
170
102
{ACAD_REACTORS
330
15A
102
}
330
21
100
AcDbEntity
  8
1
  6
HIDDEN
 62
     7
100
AcDbPolyline
 90
        4
 70
     1
 43
0.0
 10
256.5702396446643
 20
1176.589028102852
 10
250.3246146267571
 20
1176.589028102852
 10
250.3246146267571
 20
1179.660864589257
 10
256.5702396446643
 20
1179.660864589257
  0
LINE
  5
171
102
{ACAD_REACTORS
330
15A
102
}
330
21
100
AcDbEntity
  8
1
  6
Continuous
 62
     7
100
AcDbLine
 10
162.64462696814
 20
1163.67219939129
 30
0.0
 11
171.3491272372939
 21
1187.494047629588
 31
0.0
  0
LINE
  5
172
102
{ACAD_REACTORS
330
15A
102
}
330
21
100
AcDbEntity
  8
1
  6
Continuous
 62
     7
100
AcDbLine
 10
171.3491272372939
 20
1187.494047629588
 30
0.0
 11
203.4062608336991
 21
1187.494047629588
 31
0.0
  0
LWPOLYLINE
  5
173
102
{ACAD_REACTORS
330
15A
102
}
330
21
100
AcDbEntity
  8
1
  6
Continuous
 62
     7
100
AcDbPolyline
 90
        4
 70
     1
 43
0.0
 10
238.8692243500108
 20
1118.930657253041
 10
223.5141267450098
 20
1118.930657253041
 10
223.5141267450098
 20
1125.934444442043
 10
238.8692243500108
 20
1125.934444442043
  0
LWPOLYLINE
  5
174
102
{ACAD_REACTORS
330
15A
102
}
330
21
100
AcDbEntity
  8
1
  6
Continuous
 62
     7
100
AcDbPolyline
 90
        4
 70
     1
 43
0.0
 10
234.2992548247129
 20
1122.432550847542
 10
228.0840962703079
 20
1122.432550847542
 10
228.0840962703079
 20
1125.565824063675
 10
234.2992548247129
 20
1125.565824063675
  0
LWPOLYLINE
  5
175
102
{ACAD_REACTORS
330
15A
102
}
330
21
100
AcDbEntity
  8
1
  6
Continuous
 62
     7
100
AcDbPolyline
 90
        4
 70
     1
 43
0.0
 10
237.4068341019152
 20
1119.483587820594
 10
224.9765169931051
 20
1119.483587820594
 10
224.9765169931051
 20
1120.5894489557
 10
237.4068341019152
 20
1120.5894489557
  0
LINE
  5
176
102
{ACAD_REACTORS
330
15A
102
}
330
21
100
AcDbEntity
  8
1
  6
Continuous
 62
     7
100
AcDbLine
 10
234.5411519348148
 20
1119.483587820594
 30
0.0
 11
234.5411519348148
 21
1120.5894489557
 31
0.0
  0
LINE
  5
177
102
{ACAD_REACTORS
330
15A
102
}
330
21
100
AcDbEntity
  8
1
  6
Continuous
 62
     7
100
AcDbLine
 10
232.7984734537694
 20
1119.483587820594
 30
0.0
 11
232.7984734537694
 21
1120.5894489557
 31
0.0
  0
LINE
  5
178
102
{ACAD_REACTORS
330
15A
102
}
330
21
100
AcDbEntity
  8
1
  6
Continuous
 62
     7
100
AcDbLine
 10
231.0967991722785
 20
1119.483587820594
 30
0.0
 11
231.0967991722785
 21
1120.5894489557
 31
0.0
  0
LINE
  5
179
102
{ACAD_REACTORS
330
15A
102
}
330
21
100
AcDbEntity
  8
1
  6
Continuous
 62
     7
100
AcDbLine
 10
229.3541206912334
 20
1119.483587820594
 30
0.0
 11
229.3541206912334
 21
1120.5894489557
 31
0.0
  0
LINE
  5
17A
102
{ACAD_REACTORS
330
15A
102
}
330
21
100
AcDbEntity
  8
1
  6
Continuous
 62
     7
100
AcDbLine
 10
227.5294338110801
 20
1119.483587820594
 30
0.0
 11
227.5294338110801
 21
1120.5894489557
 31
0.0
  0
LINE
  5
17B
102
{ACAD_REACTORS
330
15A
102
}
330
21
100
AcDbEntity
  8
1
  6
Continuous
 62
     7
100
AcDbLine
 10
232.0603978617977
 20
1120.5894489557
 30
0.0
 11
232.0603978617977
 21
1122.432550847542
 31
0.0
  0
LINE
  5
17C
102
{ACAD_REACTORS
330
15A
102
}
330
21
100
AcDbEntity
  8
1
  6
Continuous
 62
     7
100
AcDbLine
 10
230.1742046823133
 20
1120.5894489557
 30
0.0
 11
230.1742046823133
 21
1122.432550847542
 31
0.0
  0
ARC
  5
17D
102
{ACAD_REACTORS
330
15A
102
}
330
21
100
AcDbEntity
  8
1
  6
Continuous
 62
     7
100
AcDbCircle
 10
177.3574345395009
 20
1144.641928644246
 30
0.0
 40
23.42363445682178
100
AcDbArc
 50
295.7360033570532
 51
244.7533408195522
  0
ARC
  5
17E
102
{ACAD_REACTORS
330
15A
102
}
330
21
100
AcDbEntity
  8
1
  6
Continuous
 62
     7
100
AcDbCircle
 10
177.3574345395009
 20
1144.641928644246
 30
0.0
 40
24.12907517769748
100
AcDbArc
 50
294.931230086828
 51
245.5407265831153
  0
LINE
  5
17F
102
{ACAD_REACTORS
330
15A
102
}
330
21
100
AcDbEntity
  8
1
  6
Continuous
 62
     7
100
AcDbLine
 10
238.4327395472823
 20
1183.118650409747
 30
0.0
 11
238.4327395472823
 21
1187.494047629588
 31
0.0
  0
LINE
  5
180
102
{ACAD_REACTORS
330
15A
102
}
330
21
100
AcDbEntity
  8
1
  6
Continuous
 62
     7
100
AcDbLine
 10
244.8660828018951
 20
1187.494047629588
 30
0.0
 11
244.8660828018951
 21
1183.342327338846
 31
0.0
  0
LINE
  5
181
102
{ACAD_REACTORS
330
15A
102
}
330
21
100
AcDbEntity
  8
1
  6
Continuous
 62
     7
100
AcDbLine
 10
244.8660828018951
 20
1183.342327338846
 30
0.0
 11
244.8660828018951
 21
1183.118650409747
 31
0.0
  0
ARC
  5
182
102
{ACAD_REACTORS
330
15A
102
}
330
21
100
AcDbEntity
  8
1
  6
Continuous
 62
     7
100
AcDbCircle
 10
241.6522866596096
 20
1183.217438883458
 30
0.0
 40
3.242774095711378
100
AcDbArc
 50
357.7928306812057
 51
358.2542606088791
  0
LINE
  5
183
102
{ACAD_REACTORS
330
15A
102
}
330
21
100
AcDbEntity
  8
1
  6
Continuous
 62
     7
100
AcDbLine
 10
238.4375972105651
 20
1183.118650409747
 30
0.0
 11
238.4327395472823
 21
1183.118650409747
 31
0.0
  0
ARC
  5
184
102
{ACAD_REACTORS
330
15A
102
}
330
21
100
AcDbEntity
  8
1
  6
Continuous
 62
     7
100
AcDbCircle
 10
241.6522866596096
 20
1183.217438883458
 30
0.0
 40
3.242774095711378
100
AcDbArc
 50
181.7457393911209
 51
357.7928306812057
  0
LINE
  5
185
102
{ACAD_REACTORS
330
15A
102
}
330
21
100
AcDbEntity
  8
1
  6
Continuous
 62
     7
100
AcDbLine
 10
213.7785481480869
 20
1183.09538031381
 30
0.0
 11
213.7785481480869
 21
1187.470777533651
 31
0.0
  0
LINE
  5
186
102
{ACAD_REACTORS
330
15A
102
}
330
21
100
AcDbEntity
  8
1
  6
Continuous
 62
     7
100
AcDbLine
 10
220.2118914027
 20
1187.470777533651
 30
0.0
 11
220.2118914027
 21
1183.319057242909
 31
0.0
  0
LINE
  5
187
102
{ACAD_REACTORS
330
15A
102
}
330
21
100
AcDbEntity
  8
1
  6
Continuous
 62
     7
100
AcDbLine
 10
220.2118914027
 20
1183.319057242909
 30
0.0
 11
220.2118914027
 21
1183.09538031381
 31
0.0
  0
ARC
  5
188
102
{ACAD_REACTORS
330
15A
102
}
330
21
100
AcDbEntity
  8
1
  6
Continuous
 62
     7
100
AcDbCircle
 10
216.9980952604146
 20
1183.194168787522
 30
0.0
 40
3.242774095711378
100
AcDbArc
 50
357.7928306812057
 51
358.2542606088791
  0
LINE
  5
189
102
{ACAD_REACTORS
330
15A
102
}
330
21
100
AcDbEntity
  8
1
  6
Continuous
 62
     7
100
AcDbLine
 10
213.7834058113701
 20
1183.09538031381
 30
0.0
 11
213.7785481480869
 21
1183.09538031381
 31
0.0
  0
ARC
  5
18A
102
{ACAD_REACTORS
330
15A
102
}
330
21
100
AcDbEntity
  8
1
  6
Continuous
 62
     7
100
AcDbCircle
 10
216.9980952604146
 20
1183.194168787522
 30
0.0
 40
3.242774095711378
100
AcDbArc
 50
181.7457393911209
 51
357.7928306812057
  0
LINE
  5
18B
102
{ACAD_REACTORS
330
15A
102
}
330
21
100
AcDbEntity
  8
1
  6
Continuous
 62
     7
100
AcDbLine
 10
198.2949010499423
 20
1187.494047629588
 30
0.0
 11
198.2949010499423
 21
1195.394047629588
 31
0.0
  0
LINE
  5
18C
102
{ACAD_REACTORS
330
15A
102
}
330
21
100
AcDbEntity
  8
1
  6
Continuous
 62
     7
100
AcDbLine
 10
211.2949010499423
 20
1187.494047629588
 30
0.0
 11
211.2949010499423
 21
1195.394047629588
 31
0.0
  0
LINE
  5
18D
102
{ACAD_REACTORS
330
15A
102
}
330
21
100
AcDbEntity
  8
1
  6
Continuous
 62
     7
100
AcDbLine
 10
198.2949010499423
 20
1195.394047629588
 30
0.0
 11
211.2949010499423
 21
1195.394047629588
 31
0.0
  0
LWPOLYLINE
  5
18E
102
{ACAD_REACTORS
330
15A
102
}
330
21
100
AcDbEntity
  8
1
  6
Continuous
 62
     7
100
AcDbPolyline
 90
        3
 70
     0
 43
0.0
 10
228.4496938323316
 20
1120.5894489557
 10
228.4496938323316
 20
1122.432550847542
 10
233.7508584816774
 20
1122.432550847542
  0
LWPOLYLINE
  5
18F
102
{ACAD_REACTORS
330
15A
102
}
330
21
100
AcDbEntity
  8
1
  6
Continuous
 62
     7
100
AcDbPolyline
 90
        2
 70
     0
 43
0.0
 10
233.7508584816774
 20
1122.432550847542
 10
233.7508584816774
 20
1120.5894489557
  0
LINE
  5
190
102
{ACAD_REACTORS
330
15A
102
}
330
21
100
AcDbEntity
  8
1
  6
Continuous
 62
     7
100
AcDbLine
 10
258.0935628197638
 20
1116.486716699756
 30
0.0
 11
204.4725870562686
 21
1116.486716699756
 31
0.0
  0
LINE
  5
191
102
{ACAD_REACTORS
330
15A
102
}
330
21
100
AcDbEntity
  8
1
  6
Continuous
 62
     7
100
AcDbLine
 10
204.4725870562686
 20
1116.486716699756
 30
0.0
 11
204.4725870562686
 21
1116.995400266606
 31
0.0
  0
LINE
  5
192
102
{ACAD_REACTORS
330
15A
102
}
330
21
100
AcDbEntity
  8
1
  6
Continuous
 62
     7
100
AcDbLine
 10
204.4725870562686
 20
1116.995400266606
 30
0.0
 11
258.0935628197638
 21
1116.995400266606
 31
0.0
  0
LINE
  5
193
102
{ACAD_REACTORS
330
15A
102
}
330
21
100
AcDbEntity
  8
1
  6
Continuous
 62
     7
100
AcDbLine
 10
258.0935628197638
 20
1116.995400266606
 30
0.0
 11
258.0935628197638
 21
1116.486716699756
 31
0.0
  0
TEXT
  5
194
102
{ACAD_REACTORS
330
15A
102
}
330
21
100
AcDbEntity
  8
1
  6
Continuous
 62
     7
100
AcDbText
 10
211.703153233907
 20
1152.38725932793
 30
0.0
 40
4.9983944197413
  1
LI-4-10/15-GS
 41
0.9917996493897598
  7
ARIAL
100
AcDbText
  0
LINE
  5
195
102
{ACAD_REACTORS
330
15A
102
}
330
21
100
AcDbEntity
  8
1
  6
Continuous
 62
     7
100
AcDbLine
 10
187.528567250386
 20
1123.541817020267
 30
0.0
 11
187.528567250386
 21
1122.678297766454
 31
0.0
  0
LINE
  5
196
102
{ACAD_REACTORS
330
15A
102
}
330
21
100
AcDbEntity
  8
1
  6
Continuous
 62
     7
100
AcDbLine
 10
187.528567250386
 20
1122.678297766454
 30
0.0
 11
167.3668796202237
 21
1122.678297766454
 31
0.0
  0
LINE
  5
197
102
{ACAD_REACTORS
330
15A
102
}
330
21
100
AcDbEntity
  8
1
  6
Continuous
 62
     7
100
AcDbLine
 10
167.3668796202237
 20
1122.678297766454
 30
0.0
 11
167.3668796202237
 21
1123.455878555833
 31
0.0
  0
LINE
  5
198
102
{ACAD_REACTORS
330
15A
102
}
330
21
100
AcDbEntity
  8
1
  6
Continuous
 62
     7
100
AcDbLine
 10
167.3668796202237
 20
1123.455878555833
 30
0.0
 11
187.528567250386
 21
1123.455878555833
 31
0.0
  0
LINE
  5
199
330
21
100
AcDbEntity
  8
1
  6
Continuous
 62
     7
100
AcDbLine
 10
202.9593775446976
 20
571.1098780119735
 30
0.0
 11
196.5535075497036
 21
554.4546160249889
 31
0.0
  0
LINE
  5
19A
330
21
100
AcDbEntity
  8
1
  6
Continuous
 62
     7
100
AcDbLine
 10
236.2907821550641
 20
506.0201728714222
 30
0.0
 11
222.9323724126464
 21
506.0201728714222
 31
0.0
  0
LINE
  5
19B
330
21
100
AcDbEntity
  8
1
  6
Continuous
 62
     7
100
AcDbLine
 10
155.9124379507624
 20
499.7917839903679
 30
0.0
 11
153.4878768524523
 21
505.5225647681912
 31
0.0
  0
LINE
  5
19C
330
21
100
AcDbEntity
  8
1
  6
Continuous
 62
     7
100
AcDbLine
 10
220.7659762801057
 20
499.7917839903679
 30
0.0
 11
223.0204194436289
 21
506.2733080854969
 31
0.0
  0
LINE
  5
19D
330
21
100
AcDbEntity
  8
1
  6
Continuous
 62
     7
100
AcDbLine
 10
211.8977578571886
 20
552.8362435333316
 30
0.0
 11
153.5030413800493
 21
552.8362435333316
 31
0.0
  0
LWPOLYLINE
  5
19E
330
21
100
AcDbEntity
  8
1
  6
Continuous
 62
     7
100
AcDbPolyline
 90
        4
 70
     1
 43
0.0
 10
293.780435578372
 20
511.6507487192094
 10
237.8550529877621
 20
511.6507487192094
 10
237.8550529877621
 20
513.8017249726945
 10
293.780435578372
 20
513.8017249726945
  0
LWPOLYLINE
  5
19F
330
21
100
AcDbEntity
  8
1
  6
Continuous
 62
     7
100
AcDbPolyline
 90
        4
 70
     1
 43
0.0
 10
293.780435578372
 20
513.6480838117312
 10
238.0086941487252
 20
513.6480838117312
 10
238.0086941487252
 20
518.2573186406276
 10
293.780435578372
 20
518.2573186406276
  0
LWPOLYLINE
  5
1A0
330
21
100
AcDbEntity
  8
1
  6
Continuous
 62
     7
100
AcDbPolyline
 90
        5
 70
     0
 43
0.0
 10
293.780435578372
 20
571.1098780119735
 10
293.780435578372
 20
518.1036774796645
 10
237.7014118267989
 20
518.1036774796645
 10
237.7014118267989
 20
571.1098780119735
 10
295.7777706708937
 20
571.1098780119735
  0
LINE
  5
1A1
330
21
100
AcDbEntity
  8
1
  6
Continuous
 62
     7
100
AcDbLine
 10
295.7777706708937
 20
506.2733080854969
 30
0.0
 11
295.7777706708937
 21
571.1098780119735
 31
0.0
  0
LINE
  5
1A2
330
21
100
AcDbEntity
  8
1
  6
Continuous
 62
     7
100
AcDbLine
 10
292.8585886125926
 20
500.0797381640787
 30
0.0
 11
295.7777706708937
 21
506.2733080854969
 31
0.0
  0
LINE
  5
1A3
330
21
100
AcDbEntity
  8
1
  6
Continuous
 62
     7
100
AcDbLine
 10
292.8585886125926
 20
500.588585129858
 30
0.0
 11
293.780435578372
 21
511.6507487192091
 31
0.0
  0
LINE
  5
1A4
330
21
100
AcDbEntity
  8
1
  6
Continuous
 62
     7
100
AcDbLine
 10
293.780435578372
 20
512.1116722020992
 30
0.0
 11
295.7777706708937
 21
513.7761181125339
 31
0.0
  0
LINE
  5
1A5
330
21
100
AcDbEntity
  8
1
  6
Continuous
 62
     7
100
AcDbLine
 10
293.780435578372
 20
513.494442650768
 30
0.0
 11
295.7777706708937
 21
515.3381365823265
 31
0.0
  0
LINE
  5
1A6
330
21
100
AcDbEntity
  8
1
  6
Continuous
 62
     7
100
AcDbLine
 10
293.780435578372
 20
518.2573186406276
 30
0.0
 11
295.7777706708937
 21
519.3328067673702
 31
0.0
  0
LINE
  5
1A7
330
21
100
AcDbEntity
  8
1
  6
Continuous
 62
     7
100
AcDbLine
 10
238.7768999535411
 20
500.588585129858
 30
0.0
 11
237.8550529877621
 21
511.6507487192094
 31
0.0
  0
LINE
  5
1A8
330
21
100
AcDbEntity
  8
1
  6
Continuous
 62
     7
100
AcDbLine
 10
238.7768999535411
 20
500.0797381640786
 30
0.0
 11
236.1650002171667
 21
506.1196669245336
 31
0.0
  0
LINE
  5
1A9
330
21
100
AcDbEntity
  8
1
  6
Continuous
 62
     7
100
AcDbLine
 10
236.1650002171664
 20
506.1196669245338
 30
0.0
 11
236.1650002171664
 21
571.110057915423
 31
0.0
  0
CIRCLE
  5
1AA
330
21
100
AcDbEntity
  8
1
  6
Continuous
 62
     7
100
AcDbCircle
 10
239.4756922771927
 20
561.7822692338866
 30
0.0
 40
6.522062758706633
  0
CIRCLE
  5
1AB
330
21
100
AcDbEntity
  8
1
  6
Continuous
 62
     7
100
AcDbCircle
 10
239.4756922771927
 20
561.7822692338866
 30
0.0
 40
9.330905478851285
  0
CIRCLE
  5
1AC
330
21
100
AcDbEntity
  8
1
  6
Continuous
 62
     7
100
AcDbCircle
 10
211.4287733020889
 20
560.3549967445484
 30
0.0
 40
3.537085150420582
  0
LINE
  5
1AD
330
21
100
AcDbEntity
  8
1
  6
Continuous
 62
     7
100
AcDbLine
 10
236.1646387085525
 20
506.2733080854969
 30
0.0
 11
223.0204194436289
 21
506.2733080854969
 31
0.0
  0
LINE
  5
1AE
330
21
100
AcDbEntity
  8
1
  6
Continuous
 62
     7
100
AcDbLine
 10
236.1650002171664
 20
514.4162896165473
 30
0.0
 11
231.9453098899267
 21
514.4162896165473
 31
0.0
  0
LWPOLYLINE
  5
1AF
330
21
100
AcDbEntity
  8
1
  6
Continuous
 62
     7
100
AcDbPolyline
 90
        4
 70
     0
 43
0.0
 10
291.629459324887
 20
571.1098780119735
 10
291.629459324887
 20
566.8257980571784
 10
282.1037073451677
 20
566.8257980571784
 10
282.1037073451677
 20
571.1098780119735
  0
LWPOLYLINE
  5
1B0
330
21
100
AcDbEntity
  8
1
  6
HIDDEN
 62
     7
100
AcDbPolyline
 90
        4
 70
     1
 43
0.0
 10
291.3221770029604
 20
560.2013555835852
 10
285.0228894034688
 20
560.2013555835852
 10
285.0228894034688
 20
563.2741788028495
 10
291.3221770029604
 20
563.2741788028495
  0
LINE
  5
1B1
330
21
100
AcDbEntity
  8
1
  6
Continuous
 62
     7
100
AcDbLine
 10
199.2326933055245
 20
554.4546160249889
 30
0.0
 11
205.3688424586241
 21
571.1098780119735
 31
0.0
  0
LINE
  5
1B2
330
21
100
AcDbEntity
  8
1
  6
Continuous
 62
     7
100
AcDbLine
 10
202.9593775446976
 20
571.1098780119735
 30
0.0
 11
237.7014118267989
 21
571.1098780119735
 31
0.0
  0
LWPOLYLINE
  5
1B3
330
21
100
AcDbEntity
  8
1
  6
Continuous
 62
     7
100
AcDbPolyline
 90
        4
 70
     1
 43
0.0
 10
273.469074099035
 20
502.5244637579945
 10
257.9820450739431
 20
502.5244637579945
 10
257.9820450739432
 20
509.5305006979172
 10
273.469074099035
 20
509.5305006979172
  0
LWPOLYLINE
  5
1B4
330
21
100
AcDbEntity
  8
1
  6
Continuous
 62
     7
100
AcDbPolyline
 90
        4
 70
     1
 43
0.0
 10
268.8598392701386
 20
506.0274822279558
 10
262.5912799028396
 20
506.0274822279558
 10
262.5912799028396
 20
509.1617619116054
 10
268.8598392701386
 20
509.1617619116054
  0
LWPOLYLINE
  5
1B5
330
21
100
AcDbEntity
  8
1
  6
Continuous
 62
     7
100
AcDbPolyline
 90
        4
 70
     1
 43
0.0
 10
271.9941189537881
 20
503.0775719374621
 10
259.45700021919
 20
503.0775719374621
 10
259.45700021919
 20
504.1837882963973
 10
271.9941189537881
 20
504.1837882963973
  0
LINE
  5
1B6
330
21
100
AcDbEntity
  8
1
  6
Continuous
 62
     7
100
AcDbLine
 10
269.1038147668503
 20
503.0775719374621
 30
0.0
 11
269.1038147668503
 21
504.1837882963973
 31
0.0
  0
LINE
  5
1B7
330
21
100
AcDbEntity
  8
1
  6
Continuous
 62
     7
100
AcDbLine
 10
267.3461631444625
 20
503.0775719374621
 30
0.0
 11
267.3461631444625
 21
504.1837882963973
 31
0.0
  0
LINE
  5
1B8
330
21
100
AcDbEntity
  8
1
  6
Continuous
 62
     7
100
AcDbLine
 10
265.6298680308371
 20
503.0775719374621
 30
0.0
 11
265.6298680308371
 21
504.1837882963973
 31
0.0
  0
LINE
  5
1B9
330
21
100
AcDbEntity
  8
1
  6
Continuous
 62
     7
100
AcDbLine
 10
263.8722164084495
 20
503.0775719374621
 30
0.0
 11
263.8722164084495
 21
504.1837882963973
 31
0.0
  0
LINE
  5
1BA
330
21
100
AcDbEntity
  8
1
  6
Continuous
 62
     7
100
AcDbLine
 10
262.0318517685377
 20
503.0775719374621
 30
0.0
 11
262.0318517685377
 21
504.1837882963973
 31
0.0
  0
LINE
  5
1BB
330
21
100
AcDbEntity
  8
1
  6
Continuous
 62
     7
100
AcDbLine
 10
266.6017459867455
 20
504.1837882963973
 30
0.0
 11
266.6017459867456
 21
506.0274822279558
 31
0.0
  0
LINE
  5
1BC
330
21
100
AcDbEntity
  8
1
  6
Continuous
 62
     7
100
AcDbLine
 10
264.6993465836906
 20
504.1837882963973
 30
0.0
 11
264.6993465836906
 21
506.0274822279558
 31
0.0
  0
LINE
  5
1BE
102
{ACAD_REACTORS
330
1BD
102
}
330
21
100
AcDbEntity
  8
1
  6
Continuous
 62
     7
100
AcDbLine
 10
273.0288390069008
 20
566.733075330536
 30
0.0
 11
273.0288390069008
 21
571.1098780119735
 31
0.0
  0
LINE
  5
1BF
102
{ACAD_REACTORS
330
1BD
102
}
330
21
100
AcDbEntity
  8
1
  6
Continuous
 62
     7
100
AcDbLine
 10
279.5174577233409
 20
571.1098780119735
 30
0.0
 11
279.5174577233409
 21
566.9568241089597
 31
0.0
  0
LINE
  5
1C0
102
{ACAD_REACTORS
330
1BD
102
}
330
21
100
AcDbEntity
  8
1
  6
Continuous
 62
     7
100
AcDbLine
 10
279.5174577233409
 20
566.9568241089597
 30
0.0
 11
279.5174577233409
 21
566.733075330536
 31
0.0
  0
ARC
  5
1C1
102
{ACAD_REACTORS
330
1BD
102
}
330
21
100
AcDbEntity
  8
1
  6
Continuous
 62
     7
100
AcDbCircle
 10
276.2760485563882
 20
566.831895537002
 30
0.0
 40
3.243815737013419
100
AcDbArc
 50
357.7928306812057
 51
358.2542606088791
  0
LINE
  5
1C2
102
{ACAD_REACTORS
330
1BD
102
}
330
21
100
AcDbEntity
  8
1
  6
Continuous
 62
     7
100
AcDbLine
 10
273.0337384073601
 20
566.733075330536
 30
0.0
 11
273.0288390069008
 21
566.733075330536
 31
0.0
  0
ARC
  5
1C3
102
{ACAD_REACTORS
330
1BD
102
}
330
21
100
AcDbEntity
  8
1
  6
Continuous
 62
     7
100
AcDbCircle
 10
276.2760485563882
 20
566.831895537002
 30
0.0
 40
3.243815737013419
100
AcDbArc
 50
181.7457393911209
 51
357.7928306812057
  0
LINE
  5
1C5
102
{ACAD_REACTORS
330
1C4
102
}
330
21
100
AcDbEntity
  8
1
  6
Continuous
 62
     7
100
AcDbLine
 10
248.162818118492
 20
566.7097977597978
 30
0.0
 11
248.162818118492
 21
571.0866004412353
 31
0.0
  0
LINE
  5
1C6
102
{ACAD_REACTORS
330
1C4
102
}
330
21
100
AcDbEntity
  8
1
  6
Continuous
 62
     7
100
AcDbLine
 10
254.6514368349319
 20
571.0866004412353
 30
0.0
 11
254.6514368349319
 21
566.9335465382215
 31
0.0
  0
LINE
  5
1C7
102
{ACAD_REACTORS
330
1C4
102
}
330
21
100
AcDbEntity
  8
1
  6
Continuous
 62
     7
100
AcDbLine
 10
254.6514368349319
 20
566.9335465382215
 30
0.0
 11
254.6514368349319
 21
566.7097977597978
 31
0.0
  0
ARC
  5
1C8
102
{ACAD_REACTORS
330
1C4
102
}
330
21
100
AcDbEntity
  8
1
  6
Continuous
 62
     7
100
AcDbCircle
 10
251.4100276679794
 20
566.8086179662638
 30
0.0
 40
3.243815737013419
100
AcDbArc
 50
357.7928306812057
 51
358.2542606088791
  0
LINE
  5
1C9
102
{ACAD_REACTORS
330
1C4
102
}
330
21
100
AcDbEntity
  8
1
  6
Continuous
 62
     7
100
AcDbLine
 10
248.1677175189513
 20
566.7097977597978
 30
0.0
 11
248.162818118492
 21
566.7097977597978
 31
0.0
  0
ARC
  5
1CA
102
{ACAD_REACTORS
330
1C4
102
}
330
21
100
AcDbEntity
  8
1
  6
Continuous
 62
     7
100
AcDbCircle
 10
251.4100276679794
 20
566.8086179662638
 30
0.0
 40
3.243815737013419
100
AcDbArc
 50
181.7457393911209
 51
357.7928306812057
  0
LINE
  5
1CB
330
21
100
AcDbEntity
  8
1
  6
Continuous
 62
     7
100
AcDbLine
 10
233.0277706708937
 20
571.1098780119735
 30
0.0
 11
233.0277706708937
 21
579.0098780119734
 31
0.0
  0
LINE
  5
1CC
330
21
100
AcDbEntity
  8
1
  6
Continuous
 62
     7
100
AcDbLine
 10
246.0277706708937
 20
571.1098780119735
 30
0.0
 11
246.0277706708937
 21
579.0098780119734
 31
0.0
  0
LINE
  5
1CD
330
21
100
AcDbEntity
  8
1
  6
Continuous
 62
     7
100
AcDbLine
 10
233.0277706708937
 20
579.0098780119734
 30
0.0
 11
246.0277706708937
 21
579.0098780119734
 31
0.0
  0
LWPOLYLINE
  5
1CE
330
21
100
AcDbEntity
  8
1
  6
Continuous
 62
     7
100
AcDbPolyline
 90
        3
 70
     0
 43
0.0
 10
262.9600186891511
 20
504.1837882963973
 10
262.9600186891512
 20
506.0274822279558
 10
268.3067310906712
 20
506.0274822279558
  0
LWPOLYLINE
  5
1CF
330
21
100
AcDbEntity
  8
1
  6
Continuous
 62
     7
100
AcDbPolyline
 90
        2
 70
     0
 43
0.0
 10
268.3067310906712
 20
506.0274822279558
 10
268.3067310906711
 20
504.1837882963973
  0
LINE
  5
1D0
330
21
100
AcDbEntity
  8
1
  6
Continuous
 62
     7
100
AcDbLine
 10
292.8585886125926
 20
500.0797381640787
 30
0.0
 11
238.7768999535411
 21
500.0797381640787
 31
0.0
  0
LINE
  5
1D1
330
21
100
AcDbEntity
  8
1
  6
Continuous
 62
     7
100
AcDbLine
 10
238.7768999535411
 20
500.0797381640787
 30
0.0
 11
238.7768999535411
 21
500.588585129858
 31
0.0
  0
LINE
  5
1D2
330
21
100
AcDbEntity
  8
1
  6
Continuous
 62
     7
100
AcDbLine
 10
238.7768999535411
 20
500.588585129858
 30
0.0
 11
292.8585886125926
 21
500.588585129858
 31
0.0
  0
LINE
  5
1D3
330
21
100
AcDbEntity
  8
1
  6
Continuous
 62
     7
100
AcDbLine
 10
292.8585886125926
 20
500.588585129858
 30
0.0
 11
292.8585886125926
 21
500.0797381640787
 31
0.0
  0
TEXT
  5
1D4
330
21
100
AcDbEntity
  8
1
  6
Continuous
 62
     7
100
AcDbText
 10
246.3846812927189
 20
536.8965912376412
 30
0.0
 40
5.0
  1
LI-4-10/15-VO
  7
ARIAL
100
AcDbText
  0
ARC
  5
1D5
330
21
100
AcDbEntity
  8
1
  6
Continuous
 62
     7
100
AcDbCircle
 10
211.0927555245091
 20
528.3087261840052
 30
0.0
 40
25.05651247367721
100
AcDbArc
 50
298.4264663765906
 51
88.15891479577626
  0
LINE
  5
1D6
330
21
100
AcDbEntity
  8
1
  6
Continuous
 62
     7
100
AcDbLine
 10
222.7592913332617
 20
505.522564768191
 30
0.0
 11
153.4878768524525
 21
505.522564768191
 31
0.0
  0
LINE
  5
1D7
330
21
100
AcDbEntity
  8
1
  6
Continuous
 62
     7
100
AcDbLine
 10
153.4878768524525
 20
505.522564768191
 30
0.0
 11
153.4878768524525
 21
554.4546160249889
 31
0.0
  0
LINE
  5
1D8
330
21
100
AcDbEntity
  8
1
  6
Continuous
 62
     7
100
AcDbLine
 10
153.4878768524525
 20
554.4546160249889
 30
0.0
 11
211.8977578571886
 21
554.4546160249889
 31
0.0
  0
LINE
  5
1D9
330
21
100
AcDbEntity
  8
1
  6
Continuous
 62
     7
100
AcDbLine
 10
211.8977578571886
 20
554.4546160249889
 30
0.0
 11
211.8977578571886
 21
552.8362435333316
 31
0.0
  0
LINE
  5
1DA
330
21
100
AcDbEntity
  8
1
  6
Continuous
 62
     7
100
AcDbLine
 10
222.586128096638
 20
505.0247204628982
 30
0.0
 11
153.6985032893071
 21
505.0247204628982
 31
0.0
  0
LINE
  5
1DB
330
21
100
AcDbEntity
  8
1
  6
Continuous
 62
     7
100
AcDbLine
 10
155.9124379507623
 20
499.7917839903679
 30
0.0
 11
220.7659762801057
 21
499.7917839903679
 31
0.0
  0
LINE
  5
1DC
330
21
100
AcDbEntity
  8
1
  6
Continuous
 62
     7
100
AcDbLine
 10
153.4878768524525
 20
415.9371458262301
 30
0.0
 11
156.0160696575057
 21
411.133579496629
 31
0.0
  0
LINE
  5
1DD
330
21
100
AcDbEntity
  8
1
  6
Continuous
 62
     7
100
AcDbLine
 10
224.0419384351615
 20
415.9371458262301
 30
0.0
 11
221.5137456301083
 21
411.133579496629
 31
0.0
  0
LINE
  5
1DE
330
21
100
AcDbEntity
  8
1
  6
Continuous
 62
     7
100
AcDbLine
 10
224.0419384351615
 20
415.9371458262301
 30
0.0
 11
235.8557413761026
 21
415.9371458262301
 31
0.0
  0
LINE
  5
1DF
330
21
100
AcDbEntity
  8
1
  6
Continuous
 62
     7
100
AcDbLine
 10
235.8557413761026
 20
415.9371458262301
 30
0.0
 11
235.8556813852023
 21
383.8178503504186
 31
0.0
  0
LINE
  5
1E0
330
21
100
AcDbEntity
  8
1
  6
Continuous
 62
     7
100
AcDbLine
 10
224.0419384351615
 20
415.4718494152207
 30
0.0
 11
235.855740507044
 21
415.4718494152207
 31
0.0
  0
LINE
  5
1E1
330
21
100
AcDbEntity
  8
1
  6
Continuous
 62
     7
100
AcDbLine
 10
156.0160696575057
 20
411.133579496629
 30
0.0
 11
221.5137456301083
 21
411.133579496629
 31
0.0
  0
LINE
  5
1E2
330
21
100
AcDbEntity
  8
1
  6
Continuous
 62
     7
100
AcDbLine
 10
221.5137456301083
 20
411.133579496629
 30
0.0
 11
221.5137456301083
 21
268.9032046199644
 31
0.0
  0
LINE
  5
1E3
330
21
100
AcDbEntity
  8
1
  6
Continuous
 62
     7
100
AcDbLine
 10
156.0160696575057
 20
268.9032046199644
 30
0.0
 11
156.0160696575057
 21
411.133579496629
 31
0.0
  0
LINE
  5
1E4
330
21
100
AcDbEntity
  8
1
  6
Continuous
 62
     7
100
AcDbLine
 10
153.4878768524525
 20
415.9371458262301
 30
0.0
 11
224.0419384351615
 21
415.9371458262301
 31
0.0
  0
LINE
  5
1E5
330
21
100
AcDbEntity
  8
1
  6
Continuous
 62
     7
100
AcDbLine
 10
224.0419384351615
 20
415.9371458262301
 30
0.0
 11
224.0419384351615
 21
268.9032046199644
 31
0.0
  0
LINE
  5
1E6
330
21
100
AcDbEntity
  8
1
  6
Continuous
 62
     7
100
AcDbLine
 10
153.4878768524525
 20
268.9032046199644
 30
0.0
 11
153.4878768524525
 21
415.9371458262301
 31
0.0
  0
LWPOLYLINE
  5
1E7
330
21
100
AcDbEntity
  8
1
  6
Continuous
 62
     7
100
AcDbPolyline
 90
        4
 70
     1
 43
0.0
 10
381.7081840067144
 20
963.5421523777276
 10
388.00822167982
 20
963.5421523777276
 10
388.00822167982
 20
862.4959022456954
 10
381.7081840067144
 20
862.4959022456954
  0
LINE
  5
1E8
330
21
100
AcDbEntity
  8
1
  6
Continuous
 62
     7
100
AcDbLine
 10
394.7584712196534
 20
975.3238227317618
 30
0.0
 11
382.048981887971
 21
966.6318405205622
 31
0.0
  0
LINE
  5
1E9
330
21
100
AcDbEntity
  8
1
  6
Continuous
 62
     7
100
AcDbLine
 10
388.7082258657208
 20
964.4691821954525
 30
0.0
 11
382.0489818879709
 21
964.4691821954525
 31
0.0
  0
LINE
  5
1EA
330
21
100
AcDbEntity
  8
1
  6
Continuous
 62
     7
100
AcDbLine
 10
382.0489818879709
 20
964.4691821954525
 30
0.0
 11
382.0489818879709
 21
966.6318405205622
 31
0.0
  0
LWPOLYLINE
  5
1EB
330
21
100
AcDbEntity
  8
1
  6
Continuous
 62
     7
100
AcDbPolyline
 90
        4
 70
     1
 43
0.0
 10
392.5582488881742
 20
862.1868923064536
 10
402.3583074907832
 20
862.1868923064536
 10
402.3583074907832
 20
860.0238227317618
 10
392.5582488881742
 20
860.0238227317618
  0
LWPOLYLINE
  5
1EC
330
21
100
AcDbEntity
  8
1
  6
Continuous
 62
     7
100
AcDbPolyline
 90
        4
 70
     1
 43
0.0
 10
437.0098925380755
 20
862.1868923064536
 10
446.4599490477337
 20
862.1868923064536
 10
446.4599490477337
 20
860.0238227317618
 10
437.0098925380755
 20
860.0238227317618
  0
LINE
  5
1ED
330
21
100
AcDbEntity
  8
1
  6
Continuous
 62
     7
100
AcDbLine
 10
389.7716525805678
 20
1030.523822731762
 30
0.0
 11
434.4903945926191
 21
1030.523822731762
 31
0.0
  0
LINE
  5
1EE
330
21
100
AcDbEntity
  8
1
  6
Continuous
 62
     7
100
AcDbLine
 10
436.2538254933666
 20
1028.760391831013
 30
0.0
 11
436.2538254933666
 21
975.3238227317618
 31
0.0
  0
LINE
  5
1EF
330
21
100
AcDbEntity
  8
1
  6
Continuous
 62
     7
100
AcDbLine
 10
388.00822167982
 20
970.7073470111261
 30
0.0
 11
388.00822167982
 21
1028.760391831013
 31
0.0
  0
LINE
  5
1F0
330
21
100
AcDbEntity
  8
1
  6
Continuous
 62
     7
100
AcDbLine
 10
452.7586088756287
 20
975.3238227317618
 30
0.0
 11
394.7584712196534
 21
975.3238227317618
 31
0.0
  0
LINE
  5
1F1
330
21
100
AcDbEntity
  8
1
  6
Continuous
 62
     7
100
AcDbLine
 10
452.7586088756287
 20
971.8854207372535
 30
0.0
 11
452.7586088756287
 21
975.3238227317618
 31
0.0
  0
LINE
  5
1F2
330
21
100
AcDbEntity
  8
1
  6
Continuous
 62
     7
100
AcDbLine
 10
388.00822167982
 20
964.4691821954525
 30
0.0
 11
388.00822167982
 21
862.1868923064536
 31
0.0
  0
LINE
  5
1F3
330
21
100
AcDbEntity
  8
1
  6
Continuous
 62
     7
100
AcDbLine
 10
388.00822167982
 20
862.1868923064536
 30
0.0
 11
452.7586088756287
 21
862.1868923064536
 31
0.0
  0
LINE
  5
1F4
330
21
100
AcDbEntity
  8
1
  6
Continuous
 62
     7
100
AcDbLine
 10
452.7586088756287
 20
862.1868923064536
 30
0.0
 11
452.7586088756287
 21
972.1944306764951
 31
0.0
  0
LINE
  5
1F5
330
21
100
AcDbEntity
  8
1
  6
Continuous
 62
     7
100
AcDbLine
 10
452.7586088756287
 20
941.2217825425774
 30
0.0
 11
460.6561292610813
 21
941.2217825425774
 31
0.0
  0
LINE
  5
1F6
330
21
100
AcDbEntity
  8
1
  6
Continuous
 62
     7
100
AcDbLine
 10
460.6561292610813
 20
941.2217825425774
 30
0.0
 11
460.6561292610813
 21
928.2258629209463
 31
0.0
  0
LINE
  5
1F7
330
21
100
AcDbEntity
  8
1
  6
Continuous
 62
     7
100
AcDbLine
 10
460.6561292610813
 20
928.2258629209463
 30
0.0
 11
452.7586088756287
 21
928.2258629209463
 31
0.0
  0
LINE
  5
1F8
330
21
100
AcDbEntity
  8
1
  6
Continuous
 62
     7
100
AcDbLine
 10
441.2085398082679
 20
978.1049121849374
 30
0.0
 11
448.5585837602246
 21
978.1049121849374
 31
0.0
  0
LINE
  5
1F9
330
21
100
AcDbEntity
  8
1
  6
Continuous
 62
     7
100
AcDbLine
 10
448.5585837602246
 20
978.1049121849374
 30
0.0
 11
448.5585837602246
 21
975.3238227317618
 31
0.0
  0
LINE
  5
1FA
330
21
100
AcDbEntity
  8
1
  6
Continuous
 62
     7
100
AcDbLine
 10
441.2085398082679
 20
975.3238227317618
 30
0.0
 11
441.2085398082679
 21
978.1049121849374
 31
0.0
  0
HATCH
  5
1FB
330
21
100
AcDbEntity
  8
1
  6
Continuous
 62
   252
100
AcDbHatch
 10
0.0
 20
0.0
 30
0.0
210
0.0
220
0.0
230
1.0
  2
SOLID
 70
     1
 71
     0
 91
        1
 92
        3
 72
     0
 73
     1
 93
        4
 10
402.3583074907832
 20
860.0238227317618
 10
402.3583074907832
 20
862.1868923064536
 10
392.5582488881742
 20
862.1868923064536
 10
392.5582488881742
 20
860.0238227317618
 97
        0
 75
     0
 76
     1
 98
        1
 10
0.0
 20
0.0
  0
HATCH
  5
1FC
330
21
100
AcDbEntity
  8
1
  6
Continuous
 62
   252
100
AcDbHatch
 10
0.0
 20
0.0
 30
0.0
210
0.0
220
0.0
230
1.0
  2
SOLID
 70
     1
 71
     0
 91
        1
 92
        3
 72
     0
 73
     1
 93
        4
 10
446.4585712025228
 20
860.3328326710037
 10
446.4585712025228
 20
862.1868923064536
 10
437.0085146928645
 20
862.1868923064536
 10
437.0085146928645
 20
860.3328326710037
 97
        0
 75
     0
 76
     1
 98
        1
 10
0.0
 20
0.0
  0
HATCH
  5
1FD
330
21
100
AcDbEntity
  8
1
  6
Continuous
 62
   253
100
AcDbHatch
 10
0.0
 20
0.0
 30
0.0
210
0.0
220
0.0
230
1.0
  2
SOLID
 70
     1
 71
     0
 91
        1
 92
        3
 72
     0
 73
     1
 93
        4
 10
448.5585837602246
 20
975.3238227317618
 10
448.5585837602246
 20
978.1049121849374
 10
441.2085398082679
 20
978.1049121849374
 10
441.2085398082679
 20
975.3238227317618
 97
        0
 75
     0
 76
     1
 98
        1
 10
0.0
 20
0.0
  0
HATCH
  5
1FE
330
21
100
AcDbEntity
  8
1
  6
Continuous
 62
   252
100
AcDbHatch
 10
0.0
 20
0.0
 30
0.0
210
0.0
220
0.0
230
1.0
  2
SOLID
 70
     1
 71
     0
 91
        1
 92
        3
 72
     0
 73
     1
 93
        4
 10
446.4599490477337
 20
860.0238227317618
 10
446.4599490477337
 20
862.1868923064536
 10
437.0098925380755
 20
862.1868923064536
 10
437.0098925380755
 20
860.0238227317618
 97
        0
 75
     0
 76
     1
 98
        1
 10
0.0
 20
0.0
  0
HATCH
  5
1FF
330
21
100
AcDbEntity
  8
1
  6
Continuous
 62
   252
100
AcDbHatch
 10
0.0
 20
0.0
 30
0.0
210
0.0
220
0.0
230
1.0
  2
SOLID
 70
     1
 71
     0
 91
        1
 92
        3
 72
     0
 73
     1
 93
        4
 10
446.4599490477337
 20
860.0238227317618
 10
446.4599490477337
 20
862.1868923064536
 10
437.0098925380755
 20
862.1868923064536
 10
437.0098925380755
 20
860.0238227317618
 97
        0
 75
     0
 76
     1
 98
        1
 10
0.0
 20
0.0
  0
LINE
  5
200
330
21
100
AcDbEntity
  8
1
  6
Continuous
 62
     7
100
AcDbLine
 10
388.00822167982
 20
1026.294559758392
 30
0.0
 11
436.2538254933666
 21
1026.294559758392
 31
0.0
  0
LINE
  5
201
330
21
100
AcDbEntity
  8
1
  6
Continuous
 62
     7
100
AcDbLine
 10
422.5531359138251
 20
1026.294559758392
 30
0.0
 11
426.7823988871946
 21
1026.294559758392
 31
0.0
  0
LINE
  5
202
330
21
100
AcDbEntity
  8
1
  6
Continuous
 62
     7
100
AcDbLine
 10
388.00822167982
 20
1028.760391831013
 30
0.0
 11
389.7716525805678
 21
1030.523822731762
 31
0.0
  0
LINE
  5
203
330
21
100
AcDbEntity
  8
1
  6
Continuous
 62
     7
100
AcDbLine
 10
434.4903945926191
 20
1030.523822731762
 30
0.0
 11
436.2538254933666
 21
1028.760391831013
 31
0.0
  0
LINE
  5
204
330
21
100
AcDbEntity
  8
1
  6
Continuous
 62
     7
100
AcDbLine
 10
396.2586088756287
 20
971.7575740891932
 30
0.0
 11
388.7082258657208
 21
964.4691821954525
 31
0.0
  0
LINE
  5
205
330
21
100
AcDbEntity
  8
1
  6
Continuous
 62
     7
100
AcDbLine
 10
396.2586088756288
 20
971.7575740891932
 30
0.0
 11
452.7586088756287
 21
971.7575740891932
 31
0.0
  0
LINE
  5
206
330
21
100
AcDbEntity
  8
1
  6
Continuous
 62
     7
100
AcDbLine
 10
394.7584712196534
 20
975.3238227317618
 30
0.0
 11
396.2586088756285
 21
971.7575740891932
 31
0.0
  0
LINE
  5
207
330
21
100
AcDbEntity
  8
1
  6
Continuous
 62
     7
100
AcDbLine
 10
857.9458635841925
 20
980.2337606619319
 30
0.0
 11
921.3954387152785
 21
980.2337606619319
 31
0.0
  0
LINE
  5
208
330
21
100
AcDbEntity
  8
1
  6
Continuous
 62
     7
100
AcDbLine
 10
856.4457259282177
 20
983.8000093045005
 30
0.0
 11
843.7362365965352
 21
975.1080270933009
 31
0.0
  0
LINE
  5
209
330
21
100
AcDbEntity
  8
1
  6
Continuous
 62
     7
100
AcDbLine
 10
850.3954805742846
 20
972.9453687681914
 30
0.0
 11
843.7362365965348
 21
972.9453687681914
 31
0.0
  0
LINE
  5
20A
330
21
100
AcDbEntity
  8
1
  6
Continuous
 62
     7
100
AcDbLine
 10
843.7362365965348
 20
972.9453687681914
 30
0.0
 11
843.7362365965348
 21
975.1080270933009
 31
0.0
  0
LINE
  5
20B
330
21
100
AcDbEntity
  8
1
  6
Continuous
 62
     7
100
AcDbLine
 10
857.9458635841925
 20
980.2337606619319
 30
0.0
 11
850.3954805742846
 21
972.9453687681914
 31
0.0
  0
LINE
  5
20C
330
21
100
AcDbEntity
  8
1
  6
Continuous
 62
     7
100
AcDbLine
 10
856.4457259282177
 20
983.8000093045005
 30
0.0
 11
857.9458635841925
 21
980.2337606619319
 31
0.0
  0
LINE
  5
20D
330
21
100
AcDbEntity
  8
1
  6
Continuous
 62
     7
100
AcDbLine
 10
383.4727320742309
 20
415.9371458262301
 30
0.0
 11
434.6058702727354
 21
415.9371458262301
 31
0.0
  0
LINE
  5
20E
330
21
100
AcDbEntity
  8
1
  6
Continuous
 62
     7
100
AcDbLine
 10
436.3756550830372
 20
414.167361015928
 30
0.0
 11
436.3756550830372
 21
383.1816569194235
 31
0.0
  0
LINE
  5
20F
330
21
100
AcDbEntity
  8
1
  6
Continuous
 62
     7
100
AcDbLine
 10
381.7156550830372
 20
374.4896747082239
 30
0.0
 11
381.7156550830372
 21
414.1800688350363
 31
0.0
  0
LINE
  5
210
330
21
100
AcDbEntity
  8
1
  6
Continuous
 62
     7
100
AcDbLine
 10
381.7156550830372
 20
414.1800688350363
 30
0.0
 11
383.4727320742309
 21
415.9371458262301
 31
0.0
  0
LINE
  5
211
330
21
100
AcDbEntity
  8
1
  6
Continuous
 62
     7
100
AcDbLine
 10
434.6058702727354
 20
415.9371458262301
 30
0.0
 11
436.3756550830372
 21
414.167361015928
 31
0.0
  0
TEXT
  5
212
330
21
100
AcDbEntity
  8
1
  6
Continuous
 62
     7
100
AcDbText
 10
398.4448000979753
 20
365.2750766074293
 30
0.0
 40
4.9983944197413
  1
LI-4-10/15-VO
 41
0.9917996493897598
  7
ARIAL
100
AcDbText
  0
LWPOLYLINE
  5
213
330
21
100
AcDbEntity
  8
1
  6
Continuous
 62
     7
100
AcDbPolyline
 90
        5
 70
     0
 43
0.0
 10
381.3748572017806
 20
372.4215342659302
 10
387.6748948748863
 20
372.4215342659302
 10
387.6748948748863
 20
271.3752841338979
 10
381.3748572017806
 20
271.3752841338979
 10
381.3748572017806
 20
372.4215342659302
  0
LINE
  5
214
330
21
100
AcDbEntity
  8
1
  6
Continuous
 62
     7
100
AcDbLine
 10
394.4251444147197
 20
384.2032046199644
 30
0.0
 11
381.7156550830372
 21
375.5112224087647
 31
0.0
  0
LINE
  5
215
330
21
100
AcDbEntity
  8
1
  6
Continuous
 62
     7
100
AcDbLine
 10
388.374899060787
 20
373.3485640836552
 30
0.0
 11
381.7156550830372
 21
373.3485640836552
 31
0.0
  0
LINE
  5
216
330
21
100
AcDbEntity
  8
1
  6
Continuous
 62
     7
100
AcDbLine
 10
381.7156550830372
 20
373.3485640836552
 30
0.0
 11
381.7156550830372
 21
375.5112224087647
 31
0.0
  0
LWPOLYLINE
  5
217
330
21
100
AcDbEntity
  8
1
  6
Continuous
 62
     7
100
AcDbPolyline
 90
        4
 70
     1
 43
0.0
 10
392.2249220832405
 20
271.066274194656
 10
402.0249806858495
 20
271.066274194656
 10
402.0249806858495
 20
268.9032046199644
 10
392.2249220832405
 20
268.9032046199644
  0
LWPOLYLINE
  5
218
330
21
100
AcDbEntity
  8
1
  6
Continuous
 62
     7
100
AcDbPolyline
 90
        4
 70
     1
 43
0.0
 10
436.6765657331417
 20
271.066274194656
 10
446.1266222428
 20
271.066274194656
 10
446.1266222428
 20
268.9032046199644
 10
436.6765657331417
 20
268.9032046199644
  0
LINE
  5
219
330
21
100
AcDbEntity
  8
1
  6
Continuous
 62
     7
100
AcDbLine
 10
452.4252820706951
 20
384.2032046199644
 30
0.0
 11
394.4251444147197
 21
384.2032046199644
 31
0.0
  0
LINE
  5
21A
330
21
100
AcDbEntity
  8
1
  6
Continuous
 62
     7
100
AcDbLine
 10
452.4252820706951
 20
380.7648026254561
 30
0.0
 11
452.4252820706951
 21
384.2032046199644
 31
0.0
  0
LINE
  5
21B
330
21
100
AcDbEntity
  8
1
  6
Continuous
 62
     7
100
AcDbLine
 10
387.6748948748863
 20
373.3485640836552
 30
0.0
 11
387.6748948748863
 21
271.066274194656
 31
0.0
  0
LINE
  5
21C
330
21
100
AcDbEntity
  8
1
  6
Continuous
 62
     7
100
AcDbLine
 10
387.6748948748863
 20
271.066274194656
 30
0.0
 11
452.4252820706951
 21
271.066274194656
 31
0.0
  0
LINE
  5
21D
330
21
100
AcDbEntity
  8
1
  6
Continuous
 62
     7
100
AcDbLine
 10
452.4252820706951
 20
271.066274194656
 30
0.0
 11
452.4252820706951
 21
381.0738125646978
 31
0.0
  0
LINE
  5
21E
330
21
100
AcDbEntity
  8
1
  6
Continuous
 62
     7
100
AcDbLine
 10
452.4252820706951
 20
350.1011644307799
 30
0.0
 11
460.3228024561475
 21
350.1011644307799
 31
0.0
  0
LINE
  5
21F
330
21
100
AcDbEntity
  8
1
  6
Continuous
 62
     7
100
AcDbLine
 10
460.3228024561475
 20
350.1011644307799
 30
0.0
 11
460.3228024561475
 21
337.1052448091489
 31
0.0
  0
LINE
  5
220
330
21
100
AcDbEntity
  8
1
  6
Continuous
 62
     7
100
AcDbLine
 10
460.3228024561475
 20
337.1052448091489
 30
0.0
 11
452.4252820706951
 21
337.1052448091489
 31
0.0
  0
LINE
  5
221
330
21
100
AcDbEntity
  8
1
  6
Continuous
 62
     7
100
AcDbLine
 10
440.8752130033343
 20
386.9842940731399
 30
0.0
 11
448.2252569552908
 21
386.9842940731399
 31
0.0
  0
LINE
  5
222
330
21
100
AcDbEntity
  8
1
  6
Continuous
 62
     7
100
AcDbLine
 10
448.2252569552908
 20
386.9842940731399
 30
0.0
 11
448.2252569552908
 21
384.2032046199644
 31
0.0
  0
LINE
  5
223
330
21
100
AcDbEntity
  8
1
  6
Continuous
 62
     7
100
AcDbLine
 10
440.8752130033343
 20
384.2032046199644
 30
0.0
 11
440.8752130033343
 21
386.9842940731399
 31
0.0
  0
HATCH
  5
224
330
21
100
AcDbEntity
  8
1
  6
Continuous
 62
   252
100
AcDbHatch
 10
0.0
 20
0.0
 30
0.0
210
0.0
220
0.0
230
1.0
  2
SOLID
 70
     1
 71
     0
 91
        1
 92
        3
 72
     0
 73
     1
 93
        4
 10
402.0249806858495
 20
268.9032046199644
 10
402.0249806858495
 20
271.066274194656
 10
392.2249220832405
 20
271.066274194656
 10
392.2249220832405
 20
268.9032046199644
 97
        0
 75
     0
 76
     1
 98
        1
 10
0.0
 20
0.0
  0
HATCH
  5
225
330
21
100
AcDbEntity
  8
1
  6
Continuous
 62
   252
100
AcDbHatch
 10
0.0
 20
0.0
 30
0.0
210
0.0
220
0.0
230
1.0
  2
SOLID
 70
     1
 71
     0
 91
        1
 92
        3
 72
     0
 73
     1
 93
        4
 10
446.125244397589
 20
269.2122145592063
 10
446.125244397589
 20
271.066274194656
 10
436.6751878879308
 20
271.066274194656
 10
436.6751878879308
 20
269.2122145592063
 97
        0
 75
     0
 76
     1
 98
        1
 10
0.0
 20
0.0
  0
HATCH
  5
226
330
21
100
AcDbEntity
  8
1
  6
Continuous
 62
   253
100
AcDbHatch
 10
0.0
 20
0.0
 30
0.0
210
0.0
220
0.0
230
1.0
  2
SOLID
 70
     1
 71
     0
 91
        1
 92
        3
 72
     0
 73
     1
 93
        4
 10
448.2252569552908
 20
384.2032046199644
 10
448.2252569552908
 20
386.9842940731399
 10
440.8752130033343
 20
386.9842940731399
 10
440.8752130033343
 20
384.2032046199644
 97
        0
 75
     0
 76
     1
 98
        1
 10
0.0
 20
0.0
  0
HATCH
  5
227
330
21
100
AcDbEntity
  8
1
  6
Continuous
 62
   252
100
AcDbHatch
 10
0.0
 20
0.0
 30
0.0
210
0.0
220
0.0
230
1.0
  2
SOLID
 70
     1
 71
     0
 91
        1
 92
        3
 72
     0
 73
     1
 93
        4
 10
446.1266222428
 20
268.9032046199644
 10
446.1266222428
 20
271.066274194656
 10
436.6765657331417
 20
271.066274194656
 10
436.6765657331417
 20
268.9032046199644
 97
        0
 75
     0
 76
     1
 98
        1
 10
0.0
 20
0.0
  0
HATCH
  5
228
330
21
100
AcDbEntity
  8
1
  6
Continuous
 62
   252
100
AcDbHatch
 10
0.0
 20
0.0
 30
0.0
210
0.0
220
0.0
230
1.0
  2
SOLID
 70
     1
 71
     0
 91
        1
 92
        3
 72
     0
 73
     1
 93
        4
 10
446.1266222428
 20
268.9032046199644
 10
446.1266222428
 20
271.066274194656
 10
436.6765657331417
 20
271.066274194656
 10
436.6765657331417
 20
268.9032046199644
 97
        0
 75
     0
 76
     1
 98
        1
 10
0.0
 20
0.0
  0
LINE
  5
229
330
21
100
AcDbEntity
  8
1
  6
Continuous
 62
     7
100
AcDbLine
 10
395.925282070695
 20
380.6369559773959
 30
0.0
 11
388.374899060787
 21
373.3485640836552
 31
0.0
  0
LINE
  5
22A
330
21
100
AcDbEntity
  8
1
  6
Continuous
 62
     7
100
AcDbLine
 10
395.925282070695
 20
380.6369559773957
 30
0.0
 11
452.4252820706951
 21
380.6369559773957
 31
0.0
  0
LINE
  5
22B
330
21
100
AcDbEntity
  8
1
  6
Continuous
 62
     7
100
AcDbLine
 10
394.4251444147197
 20
384.2032046199644
 30
0.0
 11
395.9252820706948
 21
380.6369559773957
 31
0.0
  0
LINE
  5
22C
330
21
100
AcDbEntity
  8
1
  6
Continuous
 62
     7
100
AcDbLine
 10
236.2275739875341
 20
384.2032987624793
 30
0.0
 11
231.6126953110951
 21
379.4202037330733
 31
0.0
  0
LINE
  5
22D
330
21
100
AcDbEntity
  8
1
  6
Continuous
 62
     7
100
AcDbLine
 10
231.6126953110951
 20
379.4202037330733
 30
0.0
 11
226.1582886986148
 21
374.1755819903037
 31
0.0
  0
LINE
  5
22E
330
21
100
AcDbEntity
  8
1
  6
Continuous
 62
     7
100
AcDbLine
 10
226.1582886986145
 20
374.1755819903037
 30
0.0
 11
221.7484429093981
 21
371.8679484234851
 31
0.0
  0
LINE
  5
22F
330
21
100
AcDbEntity
  8
1
  6
Continuous
 62
     7
100
AcDbLine
 10
221.7484429093981
 20
371.8679484234851
 30
0.0
 11
236.1860054707902
 21
371.8679484234851
 31
0.0
  0
LINE
  5
230
330
21
100
AcDbEntity
  8
1
  6
Continuous
 62
     7
100
AcDbLine
 10
232.4223231490667
 20
380.2593432119165
 30
0.0
 11
236.2487731038076
 21
380.2593432119165
 31
0.0
  0
CIRCLE
  5
231
330
21
100
AcDbEntity
  8
1
  6
Continuous
 62
     7
100
AcDbCircle
 10
234.7385721054018
 20
338.5937383378881
 30
0.0
 40
1.223245483550002
  0
LINE
  5
232
330
21
100
AcDbEntity
  8
1
  6
Continuous
 62
     7
100
AcDbLine
 10
236.7592247150763
 20
384.2032987624793
 30
0.0
 11
238.493639037609
 21
384.2032987624793
 31
0.0
  0
LINE
  5
233
330
21
100
AcDbEntity
  8
1
  6
Continuous
 62
     7
100
AcDbLine
 10
294.0304941461215
 20
384.2032987624793
 30
0.0
 11
292.8055370184213
 21
374.4036417408801
 31
0.0
  0
LINE
  5
234
330
21
100
AcDbEntity
  8
1
  6
Continuous
 62
     7
100
AcDbLine
 10
292.8195285396918
 20
374.4036417408798
 30
0.0
 11
293.5741793205787
 21
371.6162065798322
 31
0.0
  0
LINE
  5
235
330
21
100
AcDbEntity
  8
1
  6
Continuous
 62
     7
100
AcDbLine
 10
238.493639037609
 20
384.2032987624793
 30
0.0
 11
239.6935970402539
 21
374.4036417408798
 31
0.0
  0
LINE
  5
236
330
21
100
AcDbEntity
  8
1
  6
Continuous
 62
     7
100
AcDbLine
 10
239.6935970402539
 20
374.4036417408798
 30
0.0
 11
238.9184206648515
 21
371.6162065798322
 31
0.0
  0
LINE
  5
237
330
21
100
AcDbEntity
  8
1
  6
Continuous
 62
     7
100
AcDbLine
 10
238.493639037609
 20
384.2032987624793
 30
0.0
 11
236.2487731038076
 21
380.2593432119165
 31
0.0
  0
LINE
  5
238
330
21
100
AcDbEntity
  8
1
  6
Continuous
 62
     7
100
AcDbLine
 10
294.0304941461215
 20
384.2032987624793
 30
0.0
 11
295.7087731038076
 21
380.6369559773957
 31
0.0
  0
LINE
  5
239
330
21
100
AcDbEntity
  8
1
  6
Continuous
 62
     7
100
AcDbLine
 10
295.7087731038076
 20
380.6369559773957
 30
0.0
 11
295.7087731038076
 21
370.9868519706998
 31
0.0
  0
LINE
  5
23A
330
21
100
AcDbEntity
  8
1
  6
Continuous
 62
     7
100
AcDbLine
 10
236.2275739875341
 20
384.2032987624793
 30
0.0
 11
238.493639037609
 21
384.2032987624793
 31
0.0
  0
LINE
  5
23B
330
21
100
AcDbEntity
  8
1
  6
Continuous
 62
     7
100
AcDbLine
 10
239.6935970402539
 20
374.4036417408798
 30
0.0
 11
292.8195285396918
 21
374.4036417408798
 31
0.0
  0
LINE
  5
23C
330
21
100
AcDbEntity
  8
1
  6
Continuous
 62
     7
100
AcDbLine
 10
238.8975244134964
 20
371.6162065798322
 30
0.0
 11
238.8975244134964
 21
268.9032046199644
 31
0.0
  0
LINE
  5
23D
330
21
100
AcDbEntity
  8
1
  6
Continuous
 62
     7
100
AcDbLine
 10
293.5532830692236
 20
371.6162065798322
 30
0.0
 11
293.5532830692236
 21
268.9032046199644
 31
0.0
  0
TEXT
  5
23F
102
{ACAD_REACTORS
330
23E
102
}
330
21
100
AcDbEntity
  8
1
  6
Continuous
 62
     7
100
AcDbText
 10
293.0515866582001
 20
297.01135176826
 30
0.0
 40
3.997567239488905
  1
SOLVIS
 50
90.00000000000005
 41
1.283320504288475
  7
ARIALBLACK
100
AcDbText
  0
ARC
  5
240
102
{ACAD_REACTORS
330
23E
102
}
330
21
100
AcDbEntity
  8
1
  6
Continuous
 62
     7
100
AcDbCircle
 10
286.7988237647422
 20
297.5005096937807
 30
0.0
 40
7.702248677487667
100
AcDbArc
 50
100.5650764672607
 51
336.6306133876712
  0
LINE
  5
241
102
{ACAD_REACTORS
330
23E
102
}
330
21
100
AcDbEntity
  8
1
  6
Continuous
 62
     7
100
AcDbLine
 10
285.3865996228042
 20
305.0721843871883
 30
0.0
 11
285.3865996228042
 21
306.0919788858207
 31
0.0
  0
ARC
  5
242
102
{ACAD_REACTORS
330
23E
102
}
330
21
100
AcDbEntity
  8
1
  6
Continuous
 62
     7
100
AcDbCircle
 10
286.8308994515303
 20
297.2754825958001
 30
0.0
 40
8.934014149709337
100
AcDbArc
 50
99.30343782452675
 51
341.3572402394312
  0
LINE
  5
243
102
{ACAD_REACTORS
330
23E
102
}
330
21
100
AcDbEntity
  8
1
  6
Continuous
 62
     7
100
AcDbLine
 10
293.8692315083549
 20
294.4453551921362
 30
0.0
 11
295.2961468365972
 21
294.4195772162705
 31
0.0
  0
HATCH
  5
244
102
{ACAD_REACTORS
330
23E
102
}
330
21
100
AcDbEntity
  8
1
  6
Continuous
 62
     1
100
AcDbHatch
 10
0.0
 20
0.0
 30
0.0
210
0.0
220
0.0
230
1.0
  2
SOLID
 70
     1
 71
     0
 91
        1
 92
        3
 72
     1
 73
     1
 93
        4
 10
293.8692315083549
 20
294.4453551921362
 42
-1.665358010494822
 10
285.3865996228042
 20
305.0721843871883
 42
0.0
 10
285.3865996228042
 20
306.0919788858207
 42
1.768462565575793
 10
295.2961468365972
 20
294.4195772162705
 42
0.0
 97
        0
 75
     0
 76
     1
 98
        1
 10
0.0
 20
0.0
  0
TEXT
  5
246
102
{ACAD_REACTORS
330
245
102
}
330
21
100
AcDbEntity
  8
1
  6
Continuous
 62
     8
100
AcDbText
 10
240.1168324622004
 20
374.9223725357107
 30
0.0
 40
1.763481132934151
  1
SolvisLino 
 41
1.439779877320134
  7
ARIALUNICODEMS
100
AcDbText
  0
LINE
  5
247
102
{ACAD_REACTORS
330
245
102
}
330
21
100
AcDbEntity
  8
1
  6
Continuous
 62
     8
100
AcDbLine
 10
257.3622466016526
 20
376.8236525341364
 30
0.0
 11
256.4249967382186
 21
375.581104446201
 31
0.0
  0
LINE
  5
248
102
{ACAD_REACTORS
330
245
102
}
330
21
100
AcDbEntity
  8
1
  6
Continuous
 62
     8
100
AcDbLine
 10
256.4249967382186
 20
375.581104446201
 30
0.0
 11
258.1156133300922
 21
375.581104446201
 31
0.0
  0
LINE
  5
249
102
{ACAD_REACTORS
330
245
102
}
330
21
100
AcDbEntity
  8
1
  6
Continuous
 62
     8
100
AcDbLine
 10
257.5902242231038
 20
376.1420772067541
 30
0.0
 11
257.6077714379003
 21
375.1248767986486
 31
0.0
  0
HATCH
  5
24A
330
21
100
AcDbEntity
  8
1
  6
Continuous
 62
     7
100
AcDbHatch
 10
0.0
 20
0.0
 30
0.0
210
0.0
220
0.0
230
1.0
  2
SOLID
 70
     1
 71
     0
 91
        1
 92
        3
 72
     1
 73
     1
 93
        2
 10
235.9618175889517
 20
338.5937383378881
 42
0.9999999999999998
 10
233.5153266218517
 20
338.5937383378881
 42
0.9999999999999998
 97
        0
 75
     0
 76
     1
 98
        1
 10
0.0
 20
0.0
  0
LINE
  5
24B
330
21
100
AcDbEntity
  8
1
  6
Continuous
 62
     7
100
AcDbLine
 10
236.1860054707902
 20
371.8679484234851
 30
0.0
 11
236.2279624447324
 21
371.8679484234851
 31
0.0
  0
LINE
  5
24C
330
21
100
AcDbEntity
  8
1
  6
Continuous
 62
     7
100
AcDbLine
 10
236.2278768524525
 20
380.2593432119165
 30
0.0
 11
236.2278768524525
 21
268.9032046199644
 31
0.0
  0
LINE
  5
24D
330
21
100
AcDbEntity
  8
1
  6
Continuous
 62
     7
100
AcDbLine
 10
236.2487731038076
 20
371.6162065798322
 30
0.0
 11
295.7087731038076
 21
371.6162065798322
 31
0.0
  0
LINE
  5
24E
330
21
100
AcDbEntity
  8
1
  6
Continuous
 62
     7
100
AcDbLine
 10
295.6878768524525
 20
372.5369302570937
 30
0.0
 11
295.6878768524525
 21
268.9032046199644
 31
0.0
  0
LINE
  5
24F
330
21
100
AcDbEntity
  8
1
  6
Continuous
 62
     7
100
AcDbLine
 10
295.6878768524525
 20
268.9032046199644
 30
0.0
 11
236.2278768524525
 21
268.9032046199644
 31
0.0
  0
LINE
  5
250
330
21
100
AcDbEntity
  8
1
  6
Continuous
 62
     7
100
AcDbLine
 10
238.493639037609
 20
384.2032987624793
 30
0.0
 11
294.0304941461215
 21
384.2032987624793
 31
0.0
  0
CIRCLE
  5
252
102
{ACAD_REACTORS
330
251
102
}
330
21
100
AcDbEntity
  8
1
  6
Continuous
 62
     7
100
AcDbCircle
 10
267.2182263927016
 20
376.893110579728
 30
0.0
 40
0.9109174840763538
  0
CIRCLE
  5
253
102
{ACAD_REACTORS
330
251
102
}
330
21
100
AcDbEntity
  8
1
  6
Continuous
 62
     7
100
AcDbCircle
 10
267.1840467584679
 20
376.8995525872555
 30
0.0
 40
0.6433644131130616
  0
HATCH
  5
254
102
{ACAD_REACTORS
330
251
102
}
330
21
100
AcDbEntity
  8
1
  6
Continuous
 62
   252
100
AcDbHatch
 10
0.0
 20
0.0
 30
0.0
210
0.0
220
0.0
230
1.0
  2
SOLID
 70
     1
 71
     0
 91
        1
 92
        3
 72
     1
 73
     1
 93
        2
 10
267.8274111715809
 20
376.8995525872555
 42
1.0
 10
266.5406823453547
 20
376.8995525872555
 42
0.9999999999999998
 97
        0
 75
     0
 76
     1
 98
        1
 10
0.0
 20
0.0
  0
CIRCLE
  5
255
102
{ACAD_REACTORS
330
251
102
}
330
21
100
AcDbEntity
  8
1
  6
Continuous
 62
     7
100
AcDbCircle
 10
264.6520834194491
 20
376.9263894298118
 30
0.0
 40
0.8962045694811465
  0
CIRCLE
  5
256
102
{ACAD_REACTORS
330
251
102
}
330
21
100
AcDbEntity
  8
1
  6
Continuous
 62
     7
100
AcDbCircle
 10
264.6184558462396
 20
376.9327273876221
 30
0.0
 40
0.6329729497487083
  0
HATCH
  5
257
102
{ACAD_REACTORS
330
251
102
}
330
21
100
AcDbEntity
  8
1
  6
Continuous
 62
   252
100
AcDbHatch
 10
0.0
 20
0.0
 30
0.0
210
0.0
220
0.0
230
1.0
  2
SOLID
 70
     1
 71
     0
 91
        1
 92
        3
 72
     1
 73
     1
 93
        2
 10
265.2514287959883
 20
376.9327273876221
 42
1.0
 10
263.9854828964907
 20
376.9327273876221
 42
0.9999999999999998
 97
        0
 75
     0
 76
     1
 98
        1
 10
0.0
 20
0.0
  0
LWPOLYLINE
  5
258
102
{ACAD_REACTORS
330
251
102
}
330
21
100
AcDbEntity
  8
1
  6
Continuous
 62
     7
100
AcDbPolyline
 90
        5
 70
     0
 43
0.0
 10
260.2440459230229
 20
382.5327399641433
 10
271.5724288874054
 20
382.5327399641433
 10
271.5724288874054
 20
375.2322264982081
 10
260.2440459230229
 20
375.2322264982081
 10
260.2440459230229
 20
382.5327399641433
  0
LWPOLYLINE
  5
259
102
{ACAD_REACTORS
330
251
102
}
330
21
100
AcDbEntity
  8
1
  6
Continuous
 62
     7
100
AcDbPolyline
 90
        4
 70
     1
 43
0.0
 10
263.0144448303731
 20
381.4178119815056
 10
268.9159932163347
 20
381.4178119815056
 10
268.9159932163347
 20
378.3827299544395
 10
263.0144448303731
 20
378.3827299544395
  0
CIRCLE
  5
25A
102
{ACAD_REACTORS
330
251
102
}
330
21
100
AcDbEntity
  8
1
  6
Continuous
 62
     7
100
AcDbCircle
 10
261.6942462079632
 20
379.777502031115
 30
0.0
 40
0.8962045694811465
  0
CIRCLE
  5
25B
102
{ACAD_REACTORS
330
251
102
}
330
21
100
AcDbEntity
  8
1
  6
Continuous
 62
     7
100
AcDbCircle
 10
261.6606186347537
 20
379.7838399889255
 30
0.0
 40
0.6329729497487083
  0
HATCH
  5
25C
102
{ACAD_REACTORS
330
251
102
}
330
21
100
AcDbEntity
  8
1
  6
Continuous
 62
   252
100
AcDbHatch
 10
0.0
 20
0.0
 30
0.0
210
0.0
220
0.0
230
1.0
  2
SOLID
 70
     1
 71
     0
 91
        1
 92
        3
 72
     1
 73
     1
 93
        2
 10
262.2935915845023
 20
379.7838399889255
 42
1.0
 10
261.027645685005
 20
379.7838399889255
 42
0.9999999999999998
 97
        0
 75
     0
 76
     1
 98
        1
 10
0.0
 20
0.0
  0
CIRCLE
  5
25D
102
{ACAD_REACTORS
330
251
102
}
330
21
100
AcDbEntity
  8
1
  6
Continuous
 62
     7
100
AcDbCircle
 10
270.2408740557055
 20
379.8544986783921
 30
0.0
 40
0.8962045694811465
  0
CIRCLE
  5
25E
102
{ACAD_REACTORS
330
251
102
}
330
21
100
AcDbEntity
  8
1
  6
Continuous
 62
     7
100
AcDbCircle
 10
270.2072464824962
 20
379.8608366362025
 30
0.0
 40
0.6329729497487083
  0
HATCH
  5
25F
102
{ACAD_REACTORS
330
251
102
}
330
21
100
AcDbEntity
  8
1
  6
Continuous
 62
   252
100
AcDbHatch
 10
0.0
 20
0.0
 30
0.0
210
0.0
220
0.0
230
1.0
  2
SOLID
 70
     1
 71
     0
 91
        1
 92
        3
 72
     1
 73
     1
 93
        2
 10
270.840219432245
 20
379.8608366362025
 42
1.0
 10
269.5742735327474
 20
379.8608366362025
 42
0.9999999999999998
 97
        0
 75
     0
 76
     1
 98
        1
 10
0.0
 20
0.0
  0
CIRCLE
  5
260
102
{ACAD_REACTORS
330
251
102
}
330
21
100
AcDbEntity
  8
1
  6
Continuous
 62
     7
100
AcDbCircle
 10
269.5726836796485
 20
376.8919239243964
 30
0.0
 40
0.8962045694811465
  0
CIRCLE
  5
261
102
{ACAD_REACTORS
330
251
102
}
330
21
100
AcDbEntity
  8
1
  6
Continuous
 62
     7
100
AcDbCircle
 10
269.539056106439
 20
376.8982618822068
 30
0.0
 40
0.6329729497487083
  0
HATCH
  5
262
102
{ACAD_REACTORS
330
251
102
}
330
21
100
AcDbEntity
  8
1
  6
Continuous
 62
   252
100
AcDbHatch
 10
0.0
 20
0.0
 30
0.0
210
0.0
220
0.0
230
1.0
  2
SOLID
 70
     1
 71
     0
 91
        1
 92
        3
 72
     1
 73
     1
 93
        2
 10
270.1720290561878
 20
376.8982618822068
 42
1.0
 10
268.9060831566905
 20
376.8982618822068
 42
0.9999999999999998
 97
        0
 75
     0
 76
     1
 98
        1
 10
0.0
 20
0.0
  0
CIRCLE
  5
263
102
{ACAD_REACTORS
330
251
102
}
330
21
100
AcDbEntity
  8
1
  6
Continuous
 62
     7
100
AcDbCircle
 10
262.1947841386194
 20
376.9452155853588
 30
0.0
 40
0.8962045694811465
  0
CIRCLE
  5
264
102
{ACAD_REACTORS
330
251
102
}
330
21
100
AcDbEntity
  8
1
  6
Continuous
 62
     7
100
AcDbCircle
 10
262.1611565654098
 20
376.9515535431694
 30
0.0
 40
0.6329729497487083
  0
HATCH
  5
265
102
{ACAD_REACTORS
330
251
102
}
330
21
100
AcDbEntity
  8
1
  6
Continuous
 62
   252
100
AcDbHatch
 10
0.0
 20
0.0
 30
0.0
210
0.0
220
0.0
230
1.0
  2
SOLID
 70
     1
 71
     0
 91
        1
 92
        3
 72
     1
 73
     1
 93
        2
 10
262.7941295151586
 20
376.9515535431694
 42
1.0
 10
261.5281836156612
 20
376.9515535431694
 42
0.9999999999999998
 97
        0
 75
     0
 76
     1
 98
        1
 10
0.0
 20
0.0
  0
HATCH
  5
266
102
{ACAD_REACTORS
330
251
102
}
330
21
100
AcDbEntity
  8
1
  6
Continuous
 62
   251
100
AcDbHatch
 10
0.0
 20
0.0
 30
0.0
210
0.0
220
0.0
230
1.0
  2
SOLID
 70
     1
 71
     0
 91
        1
 92
        3
 72
     0
 73
     1
 93
        4
 10
268.9159932163347
 20
378.3827299544395
 10
268.9159932163347
 20
381.4178119815056
 10
263.0144448303731
 20
381.4178119815056
 10
263.0144448303731
 20
378.3827299544395
 97
        0
 75
     0
 76
     1
 98
        1
 10
0.0
 20
0.0
  0
TEXT
  5
267
330
21
100
AcDbEntity
  8
1
  6
Continuous
 62
     7
100
AcDbText
 10
245.478126902909
 20
356.2750766074293
 30
0.0
 40
4.9983944197413
  1
LI-4-10/15-VO
 41
0.9917996493897598
  7
ARIAL
100
AcDbText
  0
LINE
  5
269
102
{ACAD_REACTORS
330
268
102
}
330
21
100
AcDbEntity
  8
1
  6
Continuous
 62
     7
100
AcDbLine
 10
224.0419384351615
 20
290.493441343666
 30
0.0
 11
236.2278768524525
 21
290.493441343666
 31
0.0
  0
LINE
  5
26A
102
{ACAD_REACTORS
330
268
102
}
330
21
100
AcDbEntity
  8
1
  6
Continuous
 62
     7
100
AcDbLine
 10
236.2278768524525
 20
268.9032046199644
 30
0.0
 11
153.4878768524525
 21
268.9032046199644
 31
0.0
  0
LINE
  5
26B
102
{ACAD_REACTORS
330
268
102
}
330
21
100
AcDbEntity
  8
1
  6
Continuous
 62
     7
100
AcDbLine
 10
224.0419384351615
 20
290.2723074915918
 30
0.0
 11
236.2278768524525
 21
290.2723074915918
 31
0.0
  0
LINE
  5
26C
330
21
100
AcDbEntity
  8
1
  6
Continuous
 62
     7
100
AcDbLine
 10
671.5962073843472
 20
571.1098780119735
 30
0.0
 11
665.1903373893532
 21
554.4546160249889
 31
0.0
  0
LINE
  5
26D
330
21
100
AcDbEntity
  8
1
  6
Continuous
 62
     7
100
AcDbLine
 10
704.9276119947137
 20
506.0201728714222
 30
0.0
 11
691.5692022522959
 21
506.0201728714222
 31
0.0
  0
LINE
  5
26E
330
21
100
AcDbEntity
  8
1
  6
Continuous
 62
     7
100
AcDbLine
 10
624.5492677904121
 20
499.7917839903679
 30
0.0
 11
622.1247066921019
 21
505.5225647681912
 31
0.0
  0
LINE
  5
26F
330
21
100
AcDbEntity
  8
1
  6
Continuous
 62
     7
100
AcDbLine
 10
689.4028061197552
 20
499.7917839903679
 30
0.0
 11
691.6572492832784
 21
506.2733080854969
 31
0.0
  0
LINE
  5
270
330
21
100
AcDbEntity
  8
1
  6
Continuous
 62
     7
100
AcDbLine
 10
680.5345876968382
 20
552.8362435333316
 30
0.0
 11
622.139871219699
 21
552.8362435333316
 31
0.0
  0
LWPOLYLINE
  5
271
330
21
100
AcDbEntity
  8
1
  6
Continuous
 62
     7
100
AcDbPolyline
 90
        5
 70
     0
 43
0.0
 10
762.4172654180216
 20
511.6507487192094
 10
706.4918828274117
 20
511.6507487192094
 10
706.4918828274117
 20
513.8017249726945
 10
762.4172654180216
 20
513.8017249726945
 10
762.4172654180216
 20
511.6507487192094
  0
LWPOLYLINE
  5
272
330
21
100
AcDbEntity
  8
1
  6
Continuous
 62
     7
100
AcDbPolyline
 90
        4
 70
     1
 43
0.0
 10
762.4172654180216
 20
513.6480838117312
 10
706.6455239883748
 20
513.6480838117312
 10
706.6455239883748
 20
518.2573186406276
 10
762.4172654180216
 20
518.2573186406276
  0
LWPOLYLINE
  5
273
330
21
100
AcDbEntity
  8
1
  6
Continuous
 62
     7
100
AcDbPolyline
 90
        5
 70
     0
 43
0.0
 10
762.4172654180216
 20
571.1098780119735
 10
762.4172654180216
 20
518.1036774796645
 10
706.3382416664484
 20
518.1036774796645
 10
706.3382416664484
 20
571.1098780119735
 10
764.4146005105433
 20
571.1098780119735
  0
LINE
  5
274
330
21
100
AcDbEntity
  8
1
  6
Continuous
 62
     7
100
AcDbLine
 10
764.4146005105433
 20
506.2733080854969
 30
0.0
 11
764.4146005105433
 21
571.1098780119735
 31
0.0
  0
LINE
  5
275
330
21
100
AcDbEntity
  8
1
  6
Continuous
 62
     7
100
AcDbLine
 10
761.4954184522422
 20
500.0797381640787
 30
0.0
 11
764.4146005105433
 21
506.2733080854969
 31
0.0
  0
LINE
  5
276
330
21
100
AcDbEntity
  8
1
  6
Continuous
 62
     7
100
AcDbLine
 10
761.4954184522422
 20
500.588585129858
 30
0.0
 11
762.4172654180216
 21
511.6507487192091
 31
0.0
  0
LINE
  5
277
330
21
100
AcDbEntity
  8
1
  6
Continuous
 62
     7
100
AcDbLine
 10
762.4172654180216
 20
512.1116722020992
 30
0.0
 11
764.4146005105433
 21
513.7761181125339
 31
0.0
  0
LINE
  5
278
330
21
100
AcDbEntity
  8
1
  6
Continuous
 62
     7
100
AcDbLine
 10
762.4172654180216
 20
513.494442650768
 30
0.0
 11
764.4146005105433
 21
515.3381365823265
 31
0.0
  0
LINE
  5
279
330
21
100
AcDbEntity
  8
1
  6
Continuous
 62
     7
100
AcDbLine
 10
762.4172654180216
 20
518.2573186406276
 30
0.0
 11
764.4146005105433
 21
519.3328067673702
 31
0.0
  0
LINE
  5
27A
330
21
100
AcDbEntity
  8
1
  6
Continuous
 62
     7
100
AcDbLine
 10
707.4137297931907
 20
500.588585129858
 30
0.0
 11
706.4918828274117
 21
511.6507487192094
 31
0.0
  0
LINE
  5
27B
330
21
100
AcDbEntity
  8
1
  6
Continuous
 62
     7
100
AcDbLine
 10
707.4137297931907
 20
500.0797381640786
 30
0.0
 11
704.8018300568164
 21
506.1196669245336
 31
0.0
  0
LINE
  5
27C
330
21
100
AcDbEntity
  8
1
  6
Continuous
 62
     7
100
AcDbLine
 10
704.801830056816
 20
506.1196669245338
 30
0.0
 11
704.801830056816
 21
571.110057915423
 31
0.0
  0
CIRCLE
  5
27D
330
21
100
AcDbEntity
  8
1
  6
Continuous
 62
     7
100
AcDbCircle
 10
708.1125221168425
 20
561.7822692338866
 30
0.0
 40
6.522062758706633
  0
CIRCLE
  5
27E
330
21
100
AcDbEntity
  8
1
  6
Continuous
 62
     7
100
AcDbCircle
 10
708.1125221168425
 20
561.7822692338866
 30
0.0
 40
9.330905478851285
  0
CIRCLE
  5
27F
330
21
100
AcDbEntity
  8
1
  6
Continuous
 62
     7
100
AcDbCircle
 10
680.0656031417385
 20
560.3549967445484
 30
0.0
 40
3.537085150420582
  0
LINE
  5
280
330
21
100
AcDbEntity
  8
1
  6
Continuous
 62
     7
100
AcDbLine
 10
704.8014685482021
 20
506.2733080854969
 30
0.0
 11
691.6572492832784
 21
506.2733080854969
 31
0.0
  0
LINE
  5
281
330
21
100
AcDbEntity
  8
1
  6
Continuous
 62
     7
100
AcDbLine
 10
704.801830056816
 20
514.4162896165473
 30
0.0
 11
700.5821397295762
 21
514.4162896165473
 31
0.0
  0
LWPOLYLINE
  5
282
330
21
100
AcDbEntity
  8
1
  6
Continuous
 62
     7
100
AcDbPolyline
 90
        4
 70
     0
 43
0.0
 10
760.2662891645366
 20
571.1098780119735
 10
760.2662891645366
 20
566.8257980571784
 10
750.7405371848173
 20
566.8257980571784
 10
750.7405371848173
 20
571.1098780119735
  0
LWPOLYLINE
  5
283
330
21
100
AcDbEntity
  8
1
  6
HIDDEN
 62
     7
100
AcDbPolyline
 90
        4
 70
     1
 43
0.0
 10
759.9590068426102
 20
560.2013555835852
 10
753.6597192431184
 20
560.2013555835852
 10
753.6597192431184
 20
563.2741788028495
 10
759.9590068426102
 20
563.2741788028495
  0
LINE
  5
284
330
21
100
AcDbEntity
  8
1
  6
Continuous
 62
     7
100
AcDbLine
 10
667.8695231451741
 20
554.4546160249889
 30
0.0
 11
674.0056722982737
 21
571.1098780119735
 31
0.0
  0
LINE
  5
285
330
21
100
AcDbEntity
  8
1
  6
Continuous
 62
     7
100
AcDbLine
 10
671.5962073843472
 20
571.1098780119735
 30
0.0
 11
706.3382416664484
 21
571.1098780119735
 31
0.0
  0
LWPOLYLINE
  5
286
330
21
100
AcDbEntity
  8
1
  6
Continuous
 62
     7
100
AcDbPolyline
 90
        4
 70
     1
 43
0.0
 10
742.1059039386846
 20
502.5244637579945
 10
726.6188749135928
 20
502.5244637579945
 10
726.6188749135928
 20
509.5305006979172
 10
742.1059039386846
 20
509.5305006979172
  0
LWPOLYLINE
  5
287
330
21
100
AcDbEntity
  8
1
  6
Continuous
 62
     7
100
AcDbPolyline
 90
        4
 70
     1
 43
0.0
 10
737.4966691097882
 20
506.0274822279558
 10
731.2281097424892
 20
506.0274822279558
 10
731.2281097424892
 20
509.1617619116054
 10
737.4966691097882
 20
509.1617619116054
  0
LWPOLYLINE
  5
288
330
21
100
AcDbEntity
  8
1
  6
Continuous
 62
     7
100
AcDbPolyline
 90
        4
 70
     1
 43
0.0
 10
740.6309487934378
 20
503.0775719374621
 10
728.0938300588396
 20
503.0775719374621
 10
728.0938300588396
 20
504.1837882963973
 10
740.6309487934378
 20
504.1837882963973
  0
LINE
  5
289
330
21
100
AcDbEntity
  8
1
  6
Continuous
 62
     7
100
AcDbLine
 10
737.7406446064999
 20
503.0775719374621
 30
0.0
 11
737.7406446064999
 21
504.1837882963973
 31
0.0
  0
LINE
  5
28A
330
21
100
AcDbEntity
  8
1
  6
Continuous
 62
     7
100
AcDbLine
 10
735.9829929841122
 20
503.0775719374621
 30
0.0
 11
735.9829929841122
 21
504.1837882963973
 31
0.0
  0
LINE
  5
28B
330
21
100
AcDbEntity
  8
1
  6
Continuous
 62
     7
100
AcDbLine
 10
734.2666978704867
 20
503.0775719374621
 30
0.0
 11
734.2666978704867
 21
504.1837882963973
 31
0.0
  0
LINE
  5
28C
330
21
100
AcDbEntity
  8
1
  6
Continuous
 62
     7
100
AcDbLine
 10
732.5090462480992
 20
503.0775719374621
 30
0.0
 11
732.5090462480992
 21
504.1837882963973
 31
0.0
  0
LINE
  5
28D
330
21
100
AcDbEntity
  8
1
  6
Continuous
 62
     7
100
AcDbLine
 10
730.6686816081874
 20
503.0775719374621
 30
0.0
 11
730.6686816081874
 21
504.1837882963973
 31
0.0
  0
LINE
  5
28E
330
21
100
AcDbEntity
  8
1
  6
Continuous
 62
     7
100
AcDbLine
 10
735.2385758263952
 20
504.1837882963973
 30
0.0
 11
735.2385758263952
 21
506.0274822279558
 31
0.0
  0
LINE
  5
28F
330
21
100
AcDbEntity
  8
1
  6
Continuous
 62
     7
100
AcDbLine
 10
733.3361764233402
 20
504.1837882963973
 30
0.0
 11
733.3361764233402
 21
506.0274822279558
 31
0.0
  0
LINE
  5
291
102
{ACAD_REACTORS
330
290
102
}
330
21
100
AcDbEntity
  8
1
  6
Continuous
 62
     7
100
AcDbLine
 10
741.6656688465503
 20
566.733075330536
 30
0.0
 11
741.6656688465503
 21
571.1098780119735
 31
0.0
  0
LINE
  5
292
102
{ACAD_REACTORS
330
290
102
}
330
21
100
AcDbEntity
  8
1
  6
Continuous
 62
     7
100
AcDbLine
 10
748.1542875629905
 20
571.1098780119735
 30
0.0
 11
748.1542875629905
 21
566.9568241089597
 31
0.0
  0
LINE
  5
293
102
{ACAD_REACTORS
330
290
102
}
330
21
100
AcDbEntity
  8
1
  6
Continuous
 62
     7
100
AcDbLine
 10
748.1542875629905
 20
566.9568241089597
 30
0.0
 11
748.1542875629905
 21
566.733075330536
 31
0.0
  0
ARC
  5
294
102
{ACAD_REACTORS
330
290
102
}
330
21
100
AcDbEntity
  8
1
  6
Continuous
 62
     7
100
AcDbCircle
 10
744.9128783960377
 20
566.831895537002
 30
0.0
 40
3.243815737013419
100
AcDbArc
 50
357.7928306812057
 51
358.2542606088791
  0
LINE
  5
295
102
{ACAD_REACTORS
330
290
102
}
330
21
100
AcDbEntity
  8
1
  6
Continuous
 62
     7
100
AcDbLine
 10
741.6705682470096
 20
566.733075330536
 30
0.0
 11
741.6656688465503
 21
566.733075330536
 31
0.0
  0
ARC
  5
296
102
{ACAD_REACTORS
330
290
102
}
330
21
100
AcDbEntity
  8
1
  6
Continuous
 62
     7
100
AcDbCircle
 10
744.9128783960377
 20
566.831895537002
 30
0.0
 40
3.243815737013419
100
AcDbArc
 50
181.7457393911209
 51
357.7928306812057
  0
LINE
  5
298
102
{ACAD_REACTORS
330
297
102
}
330
21
100
AcDbEntity
  8
1
  6
Continuous
 62
     7
100
AcDbLine
 10
716.7996479581415
 20
566.7097977597978
 30
0.0
 11
716.7996479581415
 21
571.0866004412353
 31
0.0
  0
LINE
  5
299
102
{ACAD_REACTORS
330
297
102
}
330
21
100
AcDbEntity
  8
1
  6
Continuous
 62
     7
100
AcDbLine
 10
723.2882666745815
 20
571.0866004412353
 30
0.0
 11
723.2882666745815
 21
566.9335465382215
 31
0.0
  0
LINE
  5
29A
102
{ACAD_REACTORS
330
297
102
}
330
21
100
AcDbEntity
  8
1
  6
Continuous
 62
     7
100
AcDbLine
 10
723.2882666745815
 20
566.9335465382215
 30
0.0
 11
723.2882666745815
 21
566.7097977597978
 31
0.0
  0
ARC
  5
29B
102
{ACAD_REACTORS
330
297
102
}
330
21
100
AcDbEntity
  8
1
  6
Continuous
 62
     7
100
AcDbCircle
 10
720.046857507629
 20
566.8086179662638
 30
0.0
 40
3.243815737013419
100
AcDbArc
 50
357.7928306812057
 51
358.2542606088791
  0
LINE
  5
29C
102
{ACAD_REACTORS
330
297
102
}
330
21
100
AcDbEntity
  8
1
  6
Continuous
 62
     7
100
AcDbLine
 10
716.8045473586009
 20
566.7097977597978
 30
0.0
 11
716.7996479581415
 21
566.7097977597978
 31
0.0
  0
ARC
  5
29D
102
{ACAD_REACTORS
330
297
102
}
330
21
100
AcDbEntity
  8
1
  6
Continuous
 62
     7
100
AcDbCircle
 10
720.046857507629
 20
566.8086179662638
 30
0.0
 40
3.243815737013419
100
AcDbArc
 50
181.7457393911209
 51
357.7928306812057
  0
LINE
  5
29E
330
21
100
AcDbEntity
  8
1
  6
Continuous
 62
     7
100
AcDbLine
 10
701.6646005105434
 20
571.1098780119735
 30
0.0
 11
701.6646005105434
 21
579.0098780119734
 31
0.0
  0
LINE
  5
29F
330
21
100
AcDbEntity
  8
1
  6
Continuous
 62
     7
100
AcDbLine
 10
714.6646005105433
 20
571.1098780119735
 30
0.0
 11
714.6646005105433
 21
579.0098780119734
 31
0.0
  0
LINE
  5
2A0
330
21
100
AcDbEntity
  8
1
  6
Continuous
 62
     7
100
AcDbLine
 10
701.6646005105434
 20
579.0098780119734
 30
0.0
 11
714.6646005105433
 21
579.0098780119734
 31
0.0
  0
LWPOLYLINE
  5
2A1
330
21
100
AcDbEntity
  8
1
  6
Continuous
 62
     7
100
AcDbPolyline
 90
        3
 70
     0
 43
0.0
 10
731.5968485288008
 20
504.1837882963973
 10
731.5968485288008
 20
506.0274822279558
 10
736.9435609303208
 20
506.0274822279558
  0
LWPOLYLINE
  5
2A2
330
21
100
AcDbEntity
  8
1
  6
Continuous
 62
     7
100
AcDbPolyline
 90
        2
 70
     0
 43
0.0
 10
736.9435609303208
 20
506.0274822279558
 10
736.9435609303208
 20
504.1837882963973
  0
LINE
  5
2A3
330
21
100
AcDbEntity
  8
1
  6
Continuous
 62
     7
100
AcDbLine
 10
761.4954184522422
 20
500.0797381640787
 30
0.0
 11
707.4137297931907
 21
500.0797381640787
 31
0.0
  0
LINE
  5
2A4
330
21
100
AcDbEntity
  8
1
  6
Continuous
 62
     7
100
AcDbLine
 10
707.4137297931907
 20
500.0797381640787
 30
0.0
 11
707.4137297931907
 21
500.588585129858
 31
0.0
  0
LINE
  5
2A5
330
21
100
AcDbEntity
  8
1
  6
Continuous
 62
     7
100
AcDbLine
 10
707.4137297931907
 20
500.588585129858
 30
0.0
 11
761.4954184522422
 21
500.588585129858
 31
0.0
  0
LINE
  5
2A6
330
21
100
AcDbEntity
  8
1
  6
Continuous
 62
     7
100
AcDbLine
 10
761.4954184522422
 20
500.588585129858
 30
0.0
 11
761.4954184522422
 21
500.0797381640787
 31
0.0
  0
TEXT
  5
2A7
330
21
100
AcDbEntity
  8
1
  6
Continuous
 62
     7
100
AcDbText
 10
715.0215111323687
 20
536.8965912376412
 30
0.0
 40
5.0
  1
LI-4-21/26-VO
  7
ARIAL
100
AcDbText
  0
ARC
  5
2A8
330
21
100
AcDbEntity
  8
1
  6
Continuous
 62
     7
100
AcDbCircle
 10
679.7295853641588
 20
528.3087261840052
 30
0.0
 40
25.05651247367721
100
AcDbArc
 50
298.4264663765906
 51
88.15891479577626
  0
LINE
  5
2A9
330
21
100
AcDbEntity
  8
1
  6
Continuous
 62
     7
100
AcDbLine
 10
691.3961211729112
 20
505.522564768191
 30
0.0
 11
622.1247066921021
 21
505.522564768191
 31
0.0
  0
LINE
  5
2AA
330
21
100
AcDbEntity
  8
1
  6
Continuous
 62
     7
100
AcDbLine
 10
622.1247066921021
 20
505.522564768191
 30
0.0
 11
622.1247066921021
 21
554.4546160249889
 31
0.0
  0
LINE
  5
2AB
330
21
100
AcDbEntity
  8
1
  6
Continuous
 62
     7
100
AcDbLine
 10
622.1247066921021
 20
554.4546160249889
 30
0.0
 11
680.5345876968382
 21
554.4546160249889
 31
0.0
  0
LINE
  5
2AC
330
21
100
AcDbEntity
  8
1
  6
Continuous
 62
     7
100
AcDbLine
 10
680.5345876968382
 20
554.4546160249889
 30
0.0
 11
680.5345876968382
 21
552.8362435333316
 31
0.0
  0
LINE
  5
2AD
330
21
100
AcDbEntity
  8
1
  6
Continuous
 62
     7
100
AcDbLine
 10
691.2229579362876
 20
505.0247204628982
 30
0.0
 11
622.3353331289566
 21
505.0247204628982
 31
0.0
  0
LINE
  5
2AE
330
21
100
AcDbEntity
  8
1
  6
Continuous
 62
     7
100
AcDbLine
 10
624.549267790412
 20
499.7917839903679
 30
0.0
 11
689.4028061197552
 21
499.7917839903679
 31
0.0
  0
LINE
  5
2AF
330
21
100
AcDbEntity
  8
1
  6
Continuous
 62
     7
100
AcDbLine
 10
622.3353331289566
 20
415.9371458262301
 30
0.0
 11
624.8635259340099
 21
411.133579496629
 31
0.0
  0
LINE
  5
2B0
330
21
100
AcDbEntity
  8
1
  6
Continuous
 62
     7
100
AcDbLine
 10
692.8893947116659
 20
415.9371458262301
 30
0.0
 11
690.3612019066124
 21
411.133579496629
 31
0.0
  0
LINE
  5
2B1
330
21
100
AcDbEntity
  8
1
  6
Continuous
 62
     7
100
AcDbLine
 10
692.8893947116659
 20
415.9371458262301
 30
0.0
 11
704.7031976526067
 21
415.9371458262301
 31
0.0
  0
LINE
  5
2B2
330
21
100
AcDbEntity
  8
1
  6
Continuous
 62
     7
100
AcDbLine
 10
704.7031976526067
 20
415.9371458262301
 30
0.0
 11
704.7031376617066
 21
383.8178503504186
 31
0.0
  0
LINE
  5
2B3
330
21
100
AcDbEntity
  8
1
  6
Continuous
 62
     7
100
AcDbLine
 10
692.8893947116659
 20
415.4718494152207
 30
0.0
 11
704.7031967835481
 21
415.4718494152207
 31
0.0
  0
LINE
  5
2B4
330
21
100
AcDbEntity
  8
1
  6
Continuous
 62
     7
100
AcDbLine
 10
624.8635259340099
 20
411.133579496629
 30
0.0
 11
690.3612019066124
 21
411.133579496629
 31
0.0
  0
LINE
  5
2B5
330
21
100
AcDbEntity
  8
1
  6
Continuous
 62
     7
100
AcDbLine
 10
690.3612019066124
 20
411.133579496629
 30
0.0
 11
690.3612019066124
 21
268.9032046199644
 31
0.0
  0
LINE
  5
2B6
330
21
100
AcDbEntity
  8
1
  6
Continuous
 62
     7
100
AcDbLine
 10
624.8635259340099
 20
268.9032046199644
 30
0.0
 11
624.8635259340099
 21
411.133579496629
 31
0.0
  0
LINE
  5
2B7
330
21
100
AcDbEntity
  8
1
  6
Continuous
 62
     7
100
AcDbLine
 10
622.3353331289566
 20
415.9371458262301
 30
0.0
 11
692.8893947116659
 21
415.9371458262301
 31
0.0
  0
LINE
  5
2B8
330
21
100
AcDbEntity
  8
1
  6
Continuous
 62
     7
100
AcDbLine
 10
692.8893947116659
 20
415.9371458262301
 30
0.0
 11
692.8893947116659
 21
268.9032046199644
 31
0.0
  0
LINE
  5
2B9
330
21
100
AcDbEntity
  8
1
  6
Continuous
 62
     7
100
AcDbLine
 10
622.3353331289566
 20
268.9032046199644
 30
0.0
 11
622.3353331289566
 21
415.9371458262301
 31
0.0
  0
LINE
  5
2BA
330
21
100
AcDbEntity
  8
1
  6
Continuous
 62
     7
100
AcDbLine
 10
705.0750302640381
 20
384.2032987624793
 30
0.0
 11
700.4601515875992
 21
379.4202037330733
 31
0.0
  0
LINE
  5
2BB
330
21
100
AcDbEntity
  8
1
  6
Continuous
 62
     7
100
AcDbLine
 10
700.4601515875992
 20
379.4202037330733
 30
0.0
 11
695.005744975119
 21
374.1755819903037
 31
0.0
  0
LINE
  5
2BC
330
21
100
AcDbEntity
  8
1
  6
Continuous
 62
     7
100
AcDbLine
 10
695.0057449751186
 20
374.1755819903037
 30
0.0
 11
690.5958991859024
 21
371.8679484234851
 31
0.0
  0
LINE
  5
2BD
330
21
100
AcDbEntity
  8
1
  6
Continuous
 62
     7
100
AcDbLine
 10
690.5958991859024
 20
371.8679484234851
 30
0.0
 11
705.0334617472944
 21
371.8679484234851
 31
0.0
  0
LINE
  5
2BE
330
21
100
AcDbEntity
  8
1
  6
Continuous
 62
     7
100
AcDbLine
 10
701.2697794255709
 20
380.2593432119165
 30
0.0
 11
705.0962293803118
 21
380.2593432119165
 31
0.0
  0
CIRCLE
  5
2BF
330
21
100
AcDbEntity
  8
1
  6
Continuous
 62
     7
100
AcDbCircle
 10
703.5860283819061
 20
338.5937383378881
 30
0.0
 40
1.223245483550002
  0
LINE
  5
2C0
330
21
100
AcDbEntity
  8
1
  6
Continuous
 62
     7
100
AcDbLine
 10
705.6066809915805
 20
384.2032987624793
 30
0.0
 11
707.3410953141132
 21
384.2032987624793
 31
0.0
  0
LINE
  5
2C1
330
21
100
AcDbEntity
  8
1
  6
Continuous
 62
     7
100
AcDbLine
 10
762.8779504226256
 20
384.2032987624793
 30
0.0
 11
761.6529932949256
 21
374.4036417408801
 31
0.0
  0
LINE
  5
2C2
330
21
100
AcDbEntity
  8
1
  6
Continuous
 62
     7
100
AcDbLine
 10
761.666984816196
 20
374.4036417408798
 30
0.0
 11
762.4216355970828
 21
371.6162065798322
 31
0.0
  0
LINE
  5
2C3
330
21
100
AcDbEntity
  8
1
  6
Continuous
 62
     7
100
AcDbLine
 10
707.3410953141132
 20
384.2032987624793
 30
0.0
 11
708.5410533167581
 21
374.4036417408798
 31
0.0
  0
LINE
  5
2C4
330
21
100
AcDbEntity
  8
1
  6
Continuous
 62
     7
100
AcDbLine
 10
708.5410533167581
 20
374.4036417408798
 30
0.0
 11
707.7658769413558
 21
371.6162065798322
 31
0.0
  0
LINE
  5
2C5
330
21
100
AcDbEntity
  8
1
  6
Continuous
 62
     7
100
AcDbLine
 10
707.3410953141132
 20
384.2032987624793
 30
0.0
 11
705.0962293803118
 21
380.2593432119165
 31
0.0
  0
LINE
  5
2C6
330
21
100
AcDbEntity
  8
1
  6
Continuous
 62
     7
100
AcDbLine
 10
762.8779504226256
 20
384.2032987624793
 30
0.0
 11
764.5562293803119
 21
380.6369559773957
 31
0.0
  0
LINE
  5
2C7
330
21
100
AcDbEntity
  8
1
  6
Continuous
 62
     7
100
AcDbLine
 10
764.5562293803119
 20
380.6369559773957
 30
0.0
 11
764.5562293803119
 21
370.9868519706998
 31
0.0
  0
LINE
  5
2C8
330
21
100
AcDbEntity
  8
1
  6
Continuous
 62
     7
100
AcDbLine
 10
705.0750302640381
 20
384.2032987624793
 30
0.0
 11
707.3410953141132
 21
384.2032987624793
 31
0.0
  0
LINE
  5
2C9
330
21
100
AcDbEntity
  8
1
  6
Continuous
 62
     7
100
AcDbLine
 10
708.5410533167581
 20
374.4036417408798
 30
0.0
 11
761.666984816196
 21
374.4036417408798
 31
0.0
  0
LINE
  5
2CA
330
21
100
AcDbEntity
  8
1
  6
Continuous
 62
     7
100
AcDbLine
 10
707.7449806900006
 20
371.6162065798322
 30
0.0
 11
707.7449806900006
 21
268.9032046199644
 31
0.0
  0
LINE
  5
2CB
330
21
100
AcDbEntity
  8
1
  6
Continuous
 62
     7
100
AcDbLine
 10
762.4007393457277
 20
371.6162065798322
 30
0.0
 11
762.4007393457277
 21
268.9032046199644
 31
0.0
  0
TEXT
  5
2CD
102
{ACAD_REACTORS
330
2CC
102
}
330
21
100
AcDbEntity
  8
1
  6
Continuous
 62
     7
100
AcDbText
 10
761.8990429347045
 20
297.01135176826
 30
0.0
 40
3.997567239488905
  1
SOLVIS
 50
90.00000000000005
 41
1.283320504288475
  7
ARIALBLACK
100
AcDbText
  0
ARC
  5
2CE
102
{ACAD_REACTORS
330
2CC
102
}
330
21
100
AcDbEntity
  8
1
  6
Continuous
 62
     7
100
AcDbCircle
 10
755.6462800412465
 20
297.5005096937807
 30
0.0
 40
7.702248677487667
100
AcDbArc
 50
100.5650764672607
 51
336.6306133876712
  0
LINE
  5
2CF
102
{ACAD_REACTORS
330
2CC
102
}
330
21
100
AcDbEntity
  8
1
  6
Continuous
 62
     7
100
AcDbLine
 10
754.2340558993085
 20
305.0721843871883
 30
0.0
 11
754.2340558993085
 21
306.0919788858207
 31
0.0
  0
ARC
  5
2D0
102
{ACAD_REACTORS
330
2CC
102
}
330
21
100
AcDbEntity
  8
1
  6
Continuous
 62
     7
100
AcDbCircle
 10
755.6783557280346
 20
297.2754825958001
 30
0.0
 40
8.934014149709337
100
AcDbArc
 50
99.30343782452675
 51
341.3572402394312
  0
LINE
  5
2D1
102
{ACAD_REACTORS
330
2CC
102
}
330
21
100
AcDbEntity
  8
1
  6
Continuous
 62
     7
100
AcDbLine
 10
762.7166877848591
 20
294.4453551921362
 30
0.0
 11
764.1436031131015
 21
294.4195772162705
 31
0.0
  0
HATCH
  5
2D2
102
{ACAD_REACTORS
330
2CC
102
}
330
21
100
AcDbEntity
  8
1
  6
Continuous
 62
     1
100
AcDbHatch
 10
0.0
 20
0.0
 30
0.0
210
0.0
220
0.0
230
1.0
  2
SOLID
 70
     1
 71
     0
 91
        1
 92
        3
 72
     1
 73
     1
 93
        4
 10
762.7166877848591
 20
294.4453551921362
 42
-1.665358010494822
 10
754.2340558993085
 20
305.0721843871883
 42
0.0
 10
754.2340558993085
 20
306.0919788858207
 42
1.768462565575793
 10
764.1436031131015
 20
294.4195772162705
 42
0.0
 97
        0
 75
     0
 76
     1
 98
        1
 10
0.0
 20
0.0
  0
TEXT
  5
2D4
102
{ACAD_REACTORS
330
2D3
102
}
330
21
100
AcDbEntity
  8
1
  6
Continuous
 62
     8
100
AcDbText
 10
708.9642887387046
 20
374.9223725357107
 30
0.0
 40
1.763481132934151
  1
SolvisLino 
 41
1.439779877320134
  7
ARIALUNICODEMS
100
AcDbText
  0
LINE
  5
2D5
102
{ACAD_REACTORS
330
2D3
102
}
330
21
100
AcDbEntity
  8
1
  6
Continuous
 62
     8
100
AcDbLine
 10
726.2097028781568
 20
376.8236525341364
 30
0.0
 11
725.2724530147229
 21
375.581104446201
 31
0.0
  0
LINE
  5
2D6
102
{ACAD_REACTORS
330
2D3
102
}
330
21
100
AcDbEntity
  8
1
  6
Continuous
 62
     8
100
AcDbLine
 10
725.2724530147229
 20
375.581104446201
 30
0.0
 11
726.9630696065965
 21
375.581104446201
 31
0.0
  0
LINE
  5
2D7
102
{ACAD_REACTORS
330
2D3
102
}
330
21
100
AcDbEntity
  8
1
  6
Continuous
 62
     8
100
AcDbLine
 10
726.4376804996081
 20
376.1420772067541
 30
0.0
 11
726.4552277144046
 21
375.1248767986486
 31
0.0
  0
HATCH
  5
2D8
330
21
100
AcDbEntity
  8
1
  6
Continuous
 62
     7
100
AcDbHatch
 10
0.0
 20
0.0
 30
0.0
210
0.0
220
0.0
230
1.0
  2
SOLID
 70
     1
 71
     0
 91
        1
 92
        3
 72
     1
 73
     1
 93
        2
 10
704.8092738654559
 20
338.5937383378881
 42
0.9999999999999998
 10
702.3627828983559
 20
338.5937383378881
 42
0.9999999999999998
 97
        0
 75
     0
 76
     1
 98
        1
 10
0.0
 20
0.0
  0
LINE
  5
2D9
330
21
100
AcDbEntity
  8
1
  6
Continuous
 62
     7
100
AcDbLine
 10
705.0334617472944
 20
371.8679484234851
 30
0.0
 11
705.0754187212366
 21
371.8679484234851
 31
0.0
  0
LINE
  5
2DA
330
21
100
AcDbEntity
  8
1
  6
Continuous
 62
     7
100
AcDbLine
 10
705.0753331289568
 20
380.2593432119165
 30
0.0
 11
705.0753331289568
 21
268.9032046199644
 31
0.0
  0
LINE
  5
2DB
330
21
100
AcDbEntity
  8
1
  6
Continuous
 62
     7
100
AcDbLine
 10
705.0962293803118
 20
371.6162065798322
 30
0.0
 11
764.5562293803119
 21
371.6162065798322
 31
0.0
  0
LINE
  5
2DC
330
21
100
AcDbEntity
  8
1
  6
Continuous
 62
     7
100
AcDbLine
 10
764.5353331289568
 20
372.5369302570937
 30
0.0
 11
764.5353331289568
 21
268.9032046199644
 31
0.0
  0
LINE
  5
2DD
330
21
100
AcDbEntity
  8
1
  6
Continuous
 62
     7
100
AcDbLine
 10
764.5353331289568
 20
268.9032046199644
 30
0.0
 11
705.0753331289568
 21
268.9032046199644
 31
0.0
  0
LINE
  5
2DE
330
21
100
AcDbEntity
  8
1
  6
Continuous
 62
     7
100
AcDbLine
 10
707.3410953141132
 20
384.2032987624793
 30
0.0
 11
762.8779504226256
 21
384.2032987624793
 31
0.0
  0
CIRCLE
  5
2E0
102
{ACAD_REACTORS
330
2DF
102
}
330
21
100
AcDbEntity
  8
1
  6
Continuous
 62
     7
100
AcDbCircle
 10
736.0656826692059
 20
376.893110579728
 30
0.0
 40
0.9109174840763538
  0
CIRCLE
  5
2E1
102
{ACAD_REACTORS
330
2DF
102
}
330
21
100
AcDbEntity
  8
1
  6
Continuous
 62
     7
100
AcDbCircle
 10
736.0315030349722
 20
376.8995525872555
 30
0.0
 40
0.6433644131130616
  0
HATCH
  5
2E2
102
{ACAD_REACTORS
330
2DF
102
}
330
21
100
AcDbEntity
  8
1
  6
Continuous
 62
   252
100
AcDbHatch
 10
0.0
 20
0.0
 30
0.0
210
0.0
220
0.0
230
1.0
  2
SOLID
 70
     1
 71
     0
 91
        1
 92
        3
 72
     1
 73
     1
 93
        2
 10
736.6748674480852
 20
376.8995525872555
 42
1.0
 10
735.3881386218589
 20
376.8995525872555
 42
0.9999999999999998
 97
        0
 75
     0
 76
     1
 98
        1
 10
0.0
 20
0.0
  0
CIRCLE
  5
2E3
102
{ACAD_REACTORS
330
2DF
102
}
330
21
100
AcDbEntity
  8
1
  6
Continuous
 62
     7
100
AcDbCircle
 10
733.4995396959534
 20
376.9263894298118
 30
0.0
 40
0.8962045694811465
  0
CIRCLE
  5
2E4
102
{ACAD_REACTORS
330
2DF
102
}
330
21
100
AcDbEntity
  8
1
  6
Continuous
 62
     7
100
AcDbCircle
 10
733.465912122744
 20
376.9327273876221
 30
0.0
 40
0.6329729497487083
  0
HATCH
  5
2E5
102
{ACAD_REACTORS
330
2DF
102
}
330
21
100
AcDbEntity
  8
1
  6
Continuous
 62
   252
100
AcDbHatch
 10
0.0
 20
0.0
 30
0.0
210
0.0
220
0.0
230
1.0
  2
SOLID
 70
     1
 71
     0
 91
        1
 92
        3
 72
     1
 73
     1
 93
        2
 10
734.0988850724926
 20
376.9327273876221
 42
1.0
 10
732.8329391729951
 20
376.9327273876221
 42
0.9999999999999998
 97
        0
 75
     0
 76
     1
 98
        1
 10
0.0
 20
0.0
  0
LWPOLYLINE
  5
2E6
102
{ACAD_REACTORS
330
2DF
102
}
330
21
100
AcDbEntity
  8
1
  6
Continuous
 62
     7
100
AcDbPolyline
 90
        5
 70
     0
 43
0.0
 10
729.0915021995271
 20
382.5327399641433
 10
740.4198851639097
 20
382.5327399641433
 10
740.4198851639097
 20
375.2322264982081
 10
729.0915021995271
 20
375.2322264982081
 10
729.0915021995271
 20
382.5327399641433
  0
LWPOLYLINE
  5
2E7
102
{ACAD_REACTORS
330
2DF
102
}
330
21
100
AcDbEntity
  8
1
  6
Continuous
 62
     7
100
AcDbPolyline
 90
        4
 70
     1
 43
0.0
 10
731.8619011068773
 20
381.4178119815056
 10
737.7634494928388
 20
381.4178119815056
 10
737.7634494928388
 20
378.3827299544395
 10
731.8619011068773
 20
378.3827299544395
  0
CIRCLE
  5
2E8
102
{ACAD_REACTORS
330
2DF
102
}
330
21
100
AcDbEntity
  8
1
  6
Continuous
 62
     7
100
AcDbCircle
 10
730.5417024844675
 20
379.777502031115
 30
0.0
 40
0.8962045694811465
  0
CIRCLE
  5
2E9
102
{ACAD_REACTORS
330
2DF
102
}
330
21
100
AcDbEntity
  8
1
  6
Continuous
 62
     7
100
AcDbCircle
 10
730.5080749112578
 20
379.7838399889255
 30
0.0
 40
0.6329729497487083
  0
HATCH
  5
2EA
102
{ACAD_REACTORS
330
2DF
102
}
330
21
100
AcDbEntity
  8
1
  6
Continuous
 62
   252
100
AcDbHatch
 10
0.0
 20
0.0
 30
0.0
210
0.0
220
0.0
230
1.0
  2
SOLID
 70
     1
 71
     0
 91
        1
 92
        3
 72
     1
 73
     1
 93
        2
 10
731.1410478610065
 20
379.7838399889255
 42
1.0
 10
729.8751019615092
 20
379.7838399889255
 42
0.9999999999999998
 97
        0
 75
     0
 76
     1
 98
        1
 10
0.0
 20
0.0
  0
CIRCLE
  5
2EB
102
{ACAD_REACTORS
330
2DF
102
}
330
21
100
AcDbEntity
  8
1
  6
Continuous
 62
     7
100
AcDbCircle
 10
739.0883303322096
 20
379.8544986783921
 30
0.0
 40
0.8962045694811465
  0
CIRCLE
  5
2EC
102
{ACAD_REACTORS
330
2DF
102
}
330
21
100
AcDbEntity
  8
1
  6
Continuous
 62
     7
100
AcDbCircle
 10
739.0547027590005
 20
379.8608366362025
 30
0.0
 40
0.6329729497487083
  0
HATCH
  5
2ED
102
{ACAD_REACTORS
330
2DF
102
}
330
21
100
AcDbEntity
  8
1
  6
Continuous
 62
   252
100
AcDbHatch
 10
0.0
 20
0.0
 30
0.0
210
0.0
220
0.0
230
1.0
  2
SOLID
 70
     1
 71
     0
 91
        1
 92
        3
 72
     1
 73
     1
 93
        2
 10
739.6876757087492
 20
379.8608366362025
 42
1.0
 10
738.4217298092517
 20
379.8608366362025
 42
0.9999999999999998
 97
        0
 75
     0
 76
     1
 98
        1
 10
0.0
 20
0.0
  0
CIRCLE
  5
2EE
102
{ACAD_REACTORS
330
2DF
102
}
330
21
100
AcDbEntity
  8
1
  6
Continuous
 62
     7
100
AcDbCircle
 10
738.4201399561527
 20
376.8919239243964
 30
0.0
 40
0.8962045694811465
  0
CIRCLE
  5
2EF
102
{ACAD_REACTORS
330
2DF
102
}
330
21
100
AcDbEntity
  8
1
  6
Continuous
 62
     7
100
AcDbCircle
 10
738.3865123829433
 20
376.8982618822068
 30
0.0
 40
0.6329729497487083
  0
HATCH
  5
2F0
102
{ACAD_REACTORS
330
2DF
102
}
330
21
100
AcDbEntity
  8
1
  6
Continuous
 62
   252
100
AcDbHatch
 10
0.0
 20
0.0
 30
0.0
210
0.0
220
0.0
230
1.0
  2
SOLID
 70
     1
 71
     0
 91
        1
 92
        3
 72
     1
 73
     1
 93
        2
 10
739.0194853326919
 20
376.8982618822068
 42
1.0
 10
737.7535394331947
 20
376.8982618822068
 42
0.9999999999999998
 97
        0
 75
     0
 76
     1
 98
        1
 10
0.0
 20
0.0
  0
CIRCLE
  5
2F1
102
{ACAD_REACTORS
330
2DF
102
}
330
21
100
AcDbEntity
  8
1
  6
Continuous
 62
     7
100
AcDbCircle
 10
731.0422404151236
 20
376.9452155853588
 30
0.0
 40
0.8962045694811465
  0
CIRCLE
  5
2F2
102
{ACAD_REACTORS
330
2DF
102
}
330
21
100
AcDbEntity
  8
1
  6
Continuous
 62
     7
100
AcDbCircle
 10
731.0086128419141
 20
376.9515535431694
 30
0.0
 40
0.6329729497487083
  0
HATCH
  5
2F3
102
{ACAD_REACTORS
330
2DF
102
}
330
21
100
AcDbEntity
  8
1
  6
Continuous
 62
   252
100
AcDbHatch
 10
0.0
 20
0.0
 30
0.0
210
0.0
220
0.0
230
1.0
  2
SOLID
 70
     1
 71
     0
 91
        1
 92
        3
 72
     1
 73
     1
 93
        2
 10
731.6415857916628
 20
376.9515535431694
 42
1.0
 10
730.3756398921655
 20
376.9515535431694
 42
0.9999999999999998
 97
        0
 75
     0
 76
     1
 98
        1
 10
0.0
 20
0.0
  0
HATCH
  5
2F4
102
{ACAD_REACTORS
330
2DF
102
}
330
21
100
AcDbEntity
  8
1
  6
Continuous
 62
   251
100
AcDbHatch
 10
0.0
 20
0.0
 30
0.0
210
0.0
220
0.0
230
1.0
  2
SOLID
 70
     1
 71
     0
 91
        1
 92
        3
 72
     0
 73
     1
 93
        4
 10
737.7634494928388
 20
378.3827299544395
 10
737.7634494928388
 20
381.4178119815056
 10
731.8619011068773
 20
381.4178119815056
 10
731.8619011068773
 20
378.3827299544395
 97
        0
 75
     0
 76
     1
 98
        1
 10
0.0
 20
0.0
  0
TEXT
  5
2F5
330
21
100
AcDbEntity
  8
1
  6
Continuous
 62
     7
100
AcDbText
 10
714.3255831794133
 20
356.2750766074293
 30
0.0
 40
4.9983944197413
  1
LI-4-21/26-VO
 41
0.9917996493897598
  7
ARIAL
100
AcDbText
  0
LINE
  5
2F7
102
{ACAD_REACTORS
330
2F6
102
}
330
21
100
AcDbEntity
  8
1
  6
Continuous
 62
     7
100
AcDbLine
 10
692.8893947116659
 20
290.493441343666
 30
0.0
 11
705.0753331289568
 21
290.493441343666
 31
0.0
  0
LINE
  5
2F8
102
{ACAD_REACTORS
330
2F6
102
}
330
21
100
AcDbEntity
  8
1
  6
Continuous
 62
     7
100
AcDbLine
 10
705.0753331289568
 20
268.9032046199644
 30
0.0
 11
622.3353331289566
 21
268.9032046199644
 31
0.0
  0
LINE
  5
2F9
102
{ACAD_REACTORS
330
2F6
102
}
330
21
100
AcDbEntity
  8
1
  6
Continuous
 62
     7
100
AcDbLine
 10
692.8893947116659
 20
290.2723074915918
 30
0.0
 11
705.0753331289568
 21
290.2723074915918
 31
0.0
  0
TEXT
  5
2FA
330
21
100
AcDbEntity
  8
1
  6
Continuous
 62
     7
100
AcDbText
 10
865.5082774336227
 20
365.2751707499442
 30
0.0
 40
4.9983944197413
  1
LI-4-21/26-VO
 41
0.9917996493897598
  7
ARIAL
100
AcDbText
  0
LINE
  5
2FB
330
21
100
AcDbEntity
  8
1
  6
Continuous
 62
     7
100
AcDbLine
 10
919.4887594063423
 20
326.0701375221918
 30
0.0
 11
841.4887594063422
 21
326.0701375221918
 31
0.0
  0
LWPOLYLINE
  5
2FC
330
21
100
AcDbEntity
  8
1
  6
Continuous
 62
     7
100
AcDbPolyline
 90
        5
 70
     0
 43
0.0
 10
841.4887594063422
 20
372.4216284084451
 10
847.788797079448
 20
372.4216284084451
 10
847.788797079448
 20
271.3753782764127
 10
841.4887594063422
 20
271.3753782764127
 10
841.4887594063422
 20
372.4216284084451
  0
LINE
  5
2FD
330
21
100
AcDbEntity
  8
1
  6
Continuous
 62
     7
100
AcDbLine
 10
848.4888012653485
 20
373.3486582261701
 30
0.0
 11
841.8295572875988
 21
373.3486582261701
 31
0.0
  0
LINE
  5
2FE
330
21
100
AcDbEntity
  8
1
  6
Continuous
 62
     7
100
AcDbLine
 10
841.8295572875988
 20
373.3486582261701
 30
0.0
 11
841.8295572875988
 21
375.5113165512796
 31
0.0
  0
LWPOLYLINE
  5
2FF
330
21
100
AcDbEntity
  8
1
  6
Continuous
 62
     7
100
AcDbPolyline
 90
        4
 70
     1
 43
0.0
 10
852.3388242878022
 20
271.0663683371709
 10
862.1388828904112
 20
271.0663683371709
 10
862.1388828904112
 20
268.9032987624792
 10
852.3388242878022
 20
268.9032987624792
  0
LWPOLYLINE
  5
300
330
21
100
AcDbEntity
  8
1
  6
Continuous
 62
     7
100
AcDbPolyline
 90
        4
 70
     1
 43
0.0
 10
903.740043068789
 20
271.0663683371709
 10
913.1900995784475
 20
271.0663683371709
 10
913.1900995784475
 20
268.9032987624792
 10
903.740043068789
 20
268.9032987624792
  0
LINE
  5
301
330
21
100
AcDbEntity
  8
1
  6
Continuous
 62
     7
100
AcDbLine
 10
919.4887594063423
 20
384.2032987624793
 30
0.0
 11
854.5390466192815
 21
384.2032987624793
 31
0.0
  0
LINE
  5
302
330
21
100
AcDbEntity
  8
1
  6
Continuous
 62
     7
100
AcDbLine
 10
919.4887594063423
 20
380.764896767971
 30
0.0
 11
919.4887594063423
 21
384.2032987624793
 31
0.0
  0
LINE
  5
303
330
21
100
AcDbEntity
  8
1
  6
Continuous
 62
     7
100
AcDbLine
 10
847.788797079448
 20
373.3486582261701
 30
0.0
 11
847.788797079448
 21
271.0663683371709
 31
0.0
  0
LINE
  5
304
330
21
100
AcDbEntity
  8
1
  6
Continuous
 62
     7
100
AcDbLine
 10
847.788797079448
 20
271.0663683371709
 30
0.0
 11
919.4887594063423
 21
271.0663683371709
 31
0.0
  0
LINE
  5
305
330
21
100
AcDbEntity
  8
1
  6
Continuous
 62
     7
100
AcDbLine
 10
919.4887594063423
 20
271.0663683371709
 30
0.0
 11
919.4887594063423
 21
381.0739067072126
 31
0.0
  0
LINE
  5
306
330
21
100
AcDbEntity
  8
1
  6
Continuous
 62
     7
100
AcDbLine
 10
919.4887594063423
 20
350.1012585732948
 30
0.0
 11
927.3862797917949
 21
350.1012585732948
 31
0.0
  0
LINE
  5
307
330
21
100
AcDbEntity
  8
1
  6
Continuous
 62
     7
100
AcDbLine
 10
927.3862797917949
 20
350.1012585732948
 30
0.0
 11
927.3862797917949
 21
337.1053389516638
 31
0.0
  0
LINE
  5
308
330
21
100
AcDbEntity
  8
1
  6
Continuous
 62
     7
100
AcDbLine
 10
927.3862797917949
 20
337.1053389516638
 30
0.0
 11
919.4887594063423
 21
337.1053389516638
 31
0.0
  0
LINE
  5
309
330
21
100
AcDbEntity
  8
1
  6
Continuous
 62
     7
100
AcDbLine
 10
907.9386903389817
 20
386.9843882156548
 30
0.0
 11
915.2887342909382
 21
386.9843882156548
 31
0.0
  0
LINE
  5
30A
330
21
100
AcDbEntity
  8
1
  6
Continuous
 62
     7
100
AcDbLine
 10
915.2887342909382
 20
386.9843882156548
 30
0.0
 11
915.2887342909382
 21
384.2032987624793
 31
0.0
  0
LINE
  5
30B
330
21
100
AcDbEntity
  8
1
  6
Continuous
 62
     7
100
AcDbLine
 10
907.9386903389817
 20
384.2032987624793
 30
0.0
 11
907.9386903389817
 21
386.9843882156548
 31
0.0
  0
HATCH
  5
30C
330
21
100
AcDbEntity
  8
1
  6
Continuous
 62
   252
100
AcDbHatch
 10
0.0
 20
0.0
 30
0.0
210
0.0
220
0.0
230
1.0
  2
SOLID
 70
     1
 71
     0
 91
        1
 92
        3
 72
     0
 73
     1
 93
        4
 10
862.1388828904112
 20
268.9032987624792
 10
862.1388828904112
 20
271.0663683371709
 10
852.3388242878022
 20
271.0663683371709
 10
852.3388242878022
 20
268.9032987624792
 97
        0
 75
     0
 76
     1
 98
        1
 10
0.0
 20
0.0
  0
HATCH
  5
30D
330
21
100
AcDbEntity
  8
1
  6
Continuous
 62
   252
100
AcDbHatch
 10
0.0
 20
0.0
 30
0.0
210
0.0
220
0.0
230
1.0
  2
SOLID
 70
     1
 71
     0
 91
        1
 92
        3
 72
     0
 73
     1
 93
        4
 10
913.1887217332364
 20
269.2123087017212
 10
913.1887217332364
 20
271.0663683371709
 10
903.7386652235781
 20
271.0663683371709
 10
903.7386652235781
 20
269.2123087017212
 97
        0
 75
     0
 76
     1
 98
        1
 10
0.0
 20
0.0
  0
HATCH
  5
30E
330
21
100
AcDbEntity
  8
1
  6
Continuous
 62
   253
100
AcDbHatch
 10
0.0
 20
0.0
 30
0.0
210
0.0
220
0.0
230
1.0
  2
SOLID
 70
     1
 71
     0
 91
        1
 92
        3
 72
     0
 73
     1
 93
        4
 10
915.2887342909382
 20
384.2032987624793
 10
915.2887342909382
 20
386.9843882156548
 10
907.9386903389817
 20
386.9843882156548
 10
907.9386903389817
 20
384.2032987624793
 97
        0
 75
     0
 76
     1
 98
        1
 10
0.0
 20
0.0
  0
HATCH
  5
30F
330
21
100
AcDbEntity
  8
1
  6
Continuous
 62
   252
100
AcDbHatch
 10
0.0
 20
0.0
 30
0.0
210
0.0
220
0.0
230
1.0
  2
SOLID
 70
     1
 71
     0
 91
        1
 92
        3
 72
     0
 73
     1
 93
        4
 10
913.1900995784475
 20
268.9032987624792
 10
913.1900995784475
 20
271.0663683371709
 10
903.740043068789
 20
271.0663683371709
 10
903.740043068789
 20
268.9032987624792
 97
        0
 75
     0
 76
     1
 98
        1
 10
0.0
 20
0.0
  0
HATCH
  5
310
330
21
100
AcDbEntity
  8
1
  6
Continuous
 62
   252
100
AcDbHatch
 10
0.0
 20
0.0
 30
0.0
210
0.0
220
0.0
230
1.0
  2
SOLID
 70
     1
 71
     0
 91
        1
 92
        3
 72
     0
 73
     1
 93
        4
 10
913.1900995784475
 20
268.9032987624792
 10
913.1900995784475
 20
271.0663683371709
 10
903.740043068789
 20
271.0663683371709
 10
903.740043068789
 20
268.9032987624792
 97
        0
 75
     0
 76
     1
 98
        1
 10
0.0
 20
0.0
  0
LINE
  5
311
330
21
100
AcDbEntity
  8
1
  6
Continuous
 62
     7
100
AcDbLine
 10
856.0391842752565
 20
380.6370501199107
 30
0.0
 11
919.4887594063423
 21
380.6370501199107
 31
0.0
  0
LINE
  5
312
330
21
100
AcDbEntity
  8
1
  6
Continuous
 62
     7
100
AcDbLine
 10
854.5390466192815
 20
384.2032987624793
 30
0.0
 11
841.829557287599
 21
375.5113165512796
 31
0.0
  0
LINE
  5
313
330
21
100
AcDbEntity
  8
1
  6
Continuous
 62
     7
100
AcDbLine
 10
848.4888012653485
 20
373.3486582261701
 30
0.0
 11
841.8295572875988
 21
373.3486582261701
 31
0.0
  0
LINE
  5
314
330
21
100
AcDbEntity
  8
1
  6
Continuous
 62
     7
100
AcDbLine
 10
841.8295572875988
 20
373.3486582261701
 30
0.0
 11
841.8295572875988
 21
375.5113165512796
 31
0.0
  0
LINE
  5
315
330
21
100
AcDbEntity
  8
1
  6
Continuous
 62
     7
100
AcDbLine
 10
856.0391842752565
 20
380.6370501199107
 30
0.0
 11
848.4888012653485
 21
373.3486582261701
 31
0.0
  0
LINE
  5
316
330
21
100
AcDbEntity
  8
1
  6
Continuous
 62
     7
100
AcDbLine
 10
854.5390466192815
 20
384.2032987624793
 30
0.0
 11
856.0391842752565
 21
380.6370501199107
 31
0.0
  0
LINE
  5
317
330
21
100
AcDbEntity
  8
1
  6
Continuous
 62
     7
100
AcDbLine
 10
848.317622114526
 20
411.133579496629
 30
0.0
 11
902.977622114526
 21
411.133579496629
 31
0.0
  0
LINE
  5
318
330
21
100
AcDbEntity
  8
1
  6
Continuous
 62
     7
100
AcDbLine
 10
850.0810530152739
 20
415.9371458262301
 30
0.0
 11
901.2141912137785
 21
415.9371458262301
 31
0.0
  0
LINE
  5
319
330
21
100
AcDbEntity
  8
1
  6
Continuous
 62
     7
100
AcDbLine
 10
902.9839760240802
 20
414.167361015928
 30
0.0
 11
902.9839760240802
 21
384.2032987624793
 31
0.0
  0
LINE
  5
31A
330
21
100
AcDbEntity
  8
1
  6
Continuous
 62
     7
100
AcDbLine
 10
848.3239760240802
 20
379.952830341205
 30
0.0
 11
848.3239760240802
 21
414.1800688350363
 31
0.0
  0
LINE
  5
31B
330
21
100
AcDbEntity
  8
1
  6
Continuous
 62
     7
100
AcDbLine
 10
848.3239760240802
 20
414.1800688350363
 30
0.0
 11
850.0810530152739
 21
415.9371458262301
 31
0.0
  0
LINE
  5
31C
330
21
100
AcDbEntity
  8
1
  6
Continuous
 62
     7
100
AcDbLine
 10
901.2141912137785
 20
415.9371458262301
 30
0.0
 11
902.9839760240802
 21
414.167361015928
 31
0.0
  0
LINE
  5
31D
330
21
100
AcDbEntity
  8
1
  6
Continuous
 62
     7
100
AcDbLine
 10
850.0810530152739
 20
415.9371458262301
 30
0.0
 11
862.6740337204244
 21
415.9371458262301
 31
0.0
  0
LINE
  5
31E
330
21
100
AcDbEntity
  8
1
  6
Continuous
 62
     7
100
AcDbLine
 10
381.7156550830372
 20
411.133579496629
 30
0.0
 11
436.3756550830372
 21
411.133579496629
 31
0.0
  0
LINE
  5
31F
330
21
100
AcDbEntity
  8
1
  6
HIDDEN
 62
     7
100
AcDbLine
 10
538.0
 20
1232.0
 30
0.0
 11
537.9999999999998
 21
182.9980934240395
 31
0.0
  0
LINE
  5
320
330
21
100
AcDbEntity
  8
1
  6
HIDDEN
 62
     7
100
AcDbLine
 10
138.9987468691357
 20
712.9999999999999
 30
0.0
 11
937.001253130864
 21
712.9999999999999
 31
0.0
  0
TEXT
  5
321
330
21
100
AcDbEntity
  8
1
  6
HIDDEN
 62
     7
100
AcDbText
 10
276.0653669831439
 20
1359.136887400335
 30
0.0
 40
35.0
  1
Lino4 GS/VO Maßstab 1:50
  7
ARIAL
100
AcDbText
  0
ENDSEC
  0
SECTION
  2
OBJECTS
  0
DICTIONARY
  5
C
330
0
100
AcDbDictionary
281
     1
  3
ACAD_COLOR
350
1C
  3
ACAD_GROUP
350
D
  3
ACAD_LAYOUT
350
1A
  3
ACAD_MATERIAL
350
1B
  3
ACAD_MLINESTYLE
350
17
  3
ACAD_PLOTSETTINGS
350
19
  3
ACAD_PLOTSTYLENAME
350
E
  3
ACDBHEADERROUNDTRIPXREC
350
326
  3
AcDbVariableDictionary
350
322
  0
DICTIONARY
  5
1C
102
{ACAD_REACTORS
330
C
102
}
330
C
100
AcDbDictionary
281
     1
  0
DICTIONARY
  5
D
102
{ACAD_REACTORS
330
C
102
}
330
C
100
AcDbDictionary
281
     1
  3
*A1
350
71
  3
*A10
350
1BD
  3
*A11
350
1C4
  3
*A12
350
23E
  3
*A13
350
245
  3
*A14
350
251
  3
*A15
350
268
  3
*A16
350
290
  3
*A17
350
297
  3
*A18
350
2CC
  3
*A19
350
2D3
  3
*A2
350
7A
  3
*A20
350
2DF
  3
*A21
350
2F6
  3
*A3
350
94
  3
*A4
350
D2
  3
*A5
350
D9
  3
*A6
350
103
  3
*A7
350
10A
  3
*A8
350
122
  3
*A9
350
15A
  0
DICTIONARY
  5
1A
102
{ACAD_REACTORS
330
C
102
}
330
C
100
AcDbDictionary
281
     1
  3
Layout1
350
20
  3
Layout2
350
28
  3
Model
350
24
  0
DICTIONARY
  5
1B
102
{ACAD_REACTORS
330
C
102
}
330
C
100
AcDbDictionary
281
     1
  0
DICTIONARY
  5
17
102
{ACAD_REACTORS
330
C
102
}
330
C
100
AcDbDictionary
281
     1
  3
Standard
350
18
  0
DICTIONARY
  5
19
102
{ACAD_REACTORS
330
C
102
}
330
C
100
AcDbDictionary
281
     1
  0
ACDBDICTIONARYWDFLT
  5
E
102
{ACAD_REACTORS
330
C
102
}
330
C
100
AcDbDictionary
281
     1
  3
Normal
350
F
100
AcDbDictionaryWithDefault
340
F
  0
DICTIONARY
  5
326
102
{ACAD_REACTORS
330
C
102
}
330
C
100
AcDbDictionary
281
     1
  0
DICTIONARY
  5
322
102
{ACAD_REACTORS
330
C
102
}
330
C
100
AcDbDictionary
281
     1
  3
DIMASSOC
350
324
  3
HIDETEXT
350
323
  3
PROJECTNAME
350
325
  0
GROUP
  5
71
102
{ACAD_REACTORS
330
D
102
}
330
D
100
AcDbGroup
300

 70
     0
 71
     1
340
73
340
75
340
76
340
77
340
78
340
79
  0
GROUP
  5
1BD
102
{ACAD_REACTORS
330
D
102
}
330
D
100
AcDbGroup
300

 70
     0
 71
     1
340
1BE
340
1BF
340
1C0
340
1C1
340
1C2
340
1C3
  0
GROUP
  5
1C4
102
{ACAD_REACTORS
330
D
102
}
330
D
100
AcDbGroup
300

 70
     0
 71
     1
340
1C5
340
1C6
340
1C7
340
1C8
340
1C9
340
1CA
  0
GROUP
  5
23E
102
{ACAD_REACTORS
330
D
102
}
330
D
100
AcDbGroup
300

 70
     0
 71
     1
340
23F
340
240
340
241
340
242
340
243
340
244
  0
GROUP
  5
245
102
{ACAD_REACTORS
330
D
102
}
330
D
100
AcDbGroup
300

 70
     0
 71
     1
340
246
340
247
340
248
340
249
  0
GROUP
  5
251
102
{ACAD_REACTORS
330
D
102
}
330
D
100
AcDbGroup
300

 70
     0
 71
     1
340
252
340
253
340
254
340
255
340
256
340
257
340
258
340
259
340
25A
340
25B
340
25C
340
25D
340
25E
340
25F
340
260
340
261
340
262
340
263
340
264
340
265
340
266
  0
GROUP
  5
268
102
{ACAD_REACTORS
330
D
102
}
330
D
100
AcDbGroup
300

 70
     0
 71
     1
340
269
340
26A
340
26B
  0
GROUP
  5
290
102
{ACAD_REACTORS
330
D
102
}
330
D
100
AcDbGroup
300

 70
     0
 71
     1
340
291
340
292
340
293
340
294
340
295
340
296
  0
GROUP
  5
297
102
{ACAD_REACTORS
330
D
102
}
330
D
100
AcDbGroup
300

 70
     0
 71
     1
340
298
340
299
340
29A
340
29B
340
29C
340
29D
  0
GROUP
  5
2CC
102
{ACAD_REACTORS
330
D
102
}
330
D
100
AcDbGroup
300

 70
     0
 71
     1
340
2CD
340
2CE
340
2CF
340
2D0
340
2D1
340
2D2
  0
GROUP
  5
2D3
102
{ACAD_REACTORS
330
D
102
}
330
D
100
AcDbGroup
300

 70
     0
 71
     1
340
2D4
340
2D5
340
2D6
340
2D7
  0
GROUP
  5
7A
102
{ACAD_REACTORS
330
D
102
}
330
D
100
AcDbGroup
300

 70
     0
 71
     1
340
7C
340
7E
340
7F
340
80
  0
GROUP
  5
2DF
102
{ACAD_REACTORS
330
D
102
}
330
D
100
AcDbGroup
300

 70
     0
 71
     1
340
2E0
340
2E1
340
2E2
340
2E3
340
2E4
340
2E5
340
2E6
340
2E7
340
2E8
340
2E9
340
2EA
340
2EB
340
2EC
340
2ED
340
2EE
340
2EF
340
2F0
340
2F1
340
2F2
340
2F3
340
2F4
  0
GROUP
  5
2F6
102
{ACAD_REACTORS
330
D
102
}
330
D
100
AcDbGroup
300

 70
     0
 71
     1
340
2F7
340
2F8
340
2F9
  0
GROUP
  5
94
102
{ACAD_REACTORS
330
D
102
}
330
D
100
AcDbGroup
300

 70
     0
 71
     1
340
95
340
96
340
97
340
98
340
99
340
9A
340
9B
340
9C
340
9D
340
9E
340
9F
340
A0
340
A1
340
A2
340
A3
340
A4
340
A5
340
A6
340
A7
340
A8
340
A9
  0
GROUP
  5
D2
102
{ACAD_REACTORS
330
D
102
}
330
D
100
AcDbGroup
300

 70
     0
 71
     1
340
D3
340
D4
340
D5
340
D6
340
D7
340
D8
  0
GROUP
  5
D9
102
{ACAD_REACTORS
330
D
102
}
330
D
100
AcDbGroup
300

 70
     0
 71
     1
340
DA
340
DB
340
DC
340
DD
340
DE
340
DF
  0
GROUP
  5
103
102
{ACAD_REACTORS
330
D
102
}
330
D
100
AcDbGroup
300

 70
     0
 71
     1
340
104
340
105
340
106
340
107
340
108
340
109
  0
GROUP
  5
10A
102
{ACAD_REACTORS
330
D
102
}
330
D
100
AcDbGroup
300

 70
     0
 71
     1
340
10B
340
10C
340
10D
340
10E
  0
GROUP
  5
122
102
{ACAD_REACTORS
330
D
102
}
330
D
100
AcDbGroup
300

 70
     0
 71
     1
340
123
340
124
340
125
340
126
340
127
340
128
340
129
340
12A
340
12B
340
12C
340
12D
340
12E
340
12F
340
130
340
131
340
132
340
133
340
134
340
135
340
136
340
137
  0
GROUP
  5
15A
102
{ACAD_REACTORS
330
D
102
}
330
D
100
AcDbGroup
300

 70
     0
 71
     1
340
15B
340
15C
340
15D
340
15E
340
15F
340
160
340
161
340
162
340
163
340
164
340
165
340
166
340
167
340
168
340
169
340
16A
340
16B
340
16C
340
16D
340
16E
340
16F
340
170
340
171
340
172
340
173
340
174
340
175
340
176
340
177
340
178
340
179
340
17A
340
17B
340
17C
340
17D
340
17E
340
17F
340
180
340
181
340
182
340
183
340
184
340
185
340
186
340
187
340
188
340
189
340
18A
340
18B
340
18C
340
18D
340
18E
340
18F
340
190
340
191
340
192
340
193
340
194
340
195
340
196
340
197
340
198
  0
LAYOUT
  5
20
102
{ACAD_XDICTIONARY
360
327
102
}
102
{ACAD_REACTORS
330
1A
102
}
330
1A
100
AcDbPlotSettings
  1

  2

  4

  6

 40
0.0
 41
0.0
 42
0.0
 43
0.0
 44
0.0
 45
0.0
 46
0.0
 47
0.0
 48
0.0
 49
0.0
140
0.0
141
0.0
142
1.0
143
1.0
 70
   688
 72
     0
 73
     0
 74
     5
  7

 75
    16
147
1.0
148
0.0
149
0.0
100
AcDbLayout
  1
Layout1
 70
     1
 71
     1
 10
0.0
 20
0.0
 11
12.0
 21
9.0
 12
0.0
 22
0.0
 32
0.0
 14
0.0
 24
0.0
 34
0.0
 15
0.0
 25
0.0
 35
0.0
146
0.0
 13
0.0
 23
0.0
 33
0.0
 16
1.0
 26
0.0
 36
0.0
 17
0.0
 27
1.0
 37
0.0
 76
     0
330
1D
  0
LAYOUT
  5
28
102
{ACAD_XDICTIONARY
360
32B
102
}
102
{ACAD_REACTORS
330
1A
102
}
330
1A
100
AcDbPlotSettings
  1

  2

  4

  6

 40
0.0
 41
0.0
 42
0.0
 43
0.0
 44
0.0
 45
0.0
 46
0.0
 47
0.0
 48
0.0
 49
0.0
140
0.0
141
0.0
142
1.0
143
1.0
 70
   688
 72
     0
 73
     0
 74
     5
  7

 75
    16
147
1.0
148
0.0
149
0.0
100
AcDbLayout
  1
Layout2
 70
     1
 71
     2
 10
0.0
 20
0.0
 11
12.0
 21
9.0
 12
0.0
 22
0.0
 32
0.0
 14
0.0
 24
0.0
 34
0.0
 15
0.0
 25
0.0
 35
0.0
146
0.0
 13
0.0
 23
0.0
 33
0.0
 16
1.0
 26
0.0
 36
0.0
 17
0.0
 27
1.0
 37
0.0
 76
     0
330
25
  0
LAYOUT
  5
24
102
{ACAD_XDICTIONARY
360
329
102
}
102
{ACAD_REACTORS
330
1A
102
}
330
1A
100
AcDbPlotSettings
  1

  2

  4

  6

 40
0.0
 41
0.0
 42
0.0
 43
0.0
 44
0.0
 45
0.0
 46
0.0
 47
0.0
 48
0.0
 49
0.0
140
0.0
141
0.0
142
1.0
143
1.0
 70
  1712
 72
     0
 73
     0
 74
     0
  7

 75
     0
147
1.0
148
0.0
149
0.0
100
AcDbLayout
  1
Model
 70
     1
 71
     0
 10
0.0
 20
0.0
 11
12.0
 21
9.0
 12
0.0
 22
0.0
 32
0.0
 14
0.0
 24
0.0
 34
0.0
 15
0.0
 25
0.0
 35
0.0
146
0.0
 13
0.0
 23
0.0
 33
0.0
 16
1.0
 26
0.0
 36
0.0
 17
0.0
 27
1.0
 37
0.0
 76
     0
330
21
  0
MLINESTYLE
  5
18
102
{ACAD_REACTORS
330
17
102
}
330
17
100
AcDbMlineStyle
  2
STANDARD
 70
     0
  3

 62
   256
 51
90.0
 52
90.0
 71
     2
 49
0.5
 62
   256
  6
BYLAYER
 49
-0.5
 62
   256
  6
BYLAYER
  0
ACDBPLACEHOLDER
  5
F
102
{ACAD_REACTORS
330
E
102
}
330
E
  0
DICTIONARYVAR
  5
324
102
{ACAD_REACTORS
330
322
102
}
330
322
100
DictionaryVariables
280
     0
  1
2
  0
DICTIONARYVAR
  5
323
102
{ACAD_REACTORS
330
322
102
}
330
322
100
DictionaryVariables
280
     0
  1
1
  0
DICTIONARYVAR
  5
325
102
{ACAD_REACTORS
330
322
102
}
330
322
100
DictionaryVariables
280
     0
  1

  0
DICTIONARY
  5
327
330
20
100
AcDbDictionary
280
     1
281
     1
  3
ACAD_XREC_ROUNDTRIP
360
328
  0
DICTIONARY
  5
32B
330
28
100
AcDbDictionary
280
     1
281
     1
  3
ACAD_XREC_ROUNDTRIP
360
32C
  0
DICTIONARY
  5
329
330
24
100
AcDbDictionary
280
     1
281
     1
  3
ACAD_XREC_ROUNDTRIP
360
32A
  0
XRECORD
  5
328
102
{ACAD_REACTORS
330
327
102
}
330
327
100
AcDbXrecord
280
     1
102
SHADEPLOT
 70
     0
102
SHADEPLOTRESLEVEL
 70
     2
102
SHADEPLOTCUSTOMDPI
 70
   300
  0
XRECORD
  5
32C
102
{ACAD_REACTORS
330
32B
102
}
330
32B
100
AcDbXrecord
280
     1
102
SHADEPLOT
 70
     0
102
SHADEPLOTRESLEVEL
 70
     2
102
SHADEPLOTCUSTOMDPI
 70
   300
  0
XRECORD
  5
32A
102
{ACAD_REACTORS
330
329
102
}
330
329
100
AcDbXrecord
280
     1
102
SHADEPLOT
 70
     0
102
SHADEPLOTRESLEVEL
 70
     2
102
SHADEPLOTCUSTOMDPI
 70
   300
  0
ENDSEC
  0
EOF
