  0
SECTION
  2
HEADER
  9
$ACADVER
  1
AC1015
  9
$ACADMAINTVER
 70
    18
  9
$DWGCODEPAGE
  3
ANSI_1252
  9
$INSBASE
 10
0.0
 20
0.0
 30
0.0
  9
$EXTMIN
 10
2627.243348032449
 20
6429.048888254846
 30
-0.00000001
  9
$EXTMAX
 10
8839.248805058369
 20
12716.52519903003
 30
0.00000001
  9
$LIMMIN
 10
0.0
 20
0.0
  9
$LIMMAX
 10
413.4999999999999
 20
584.75
  9
$ORTHOMODE
 70
     0
  9
$REGENMODE
 70
     1
  9
$FILLMODE
 70
     1
  9
$QTEXTMODE
 70
     0
  9
$MIRRTEXT
 70
     0
  9
$LTSCALE
 40
1.0
  9
$ATTMODE
 70
     1
  9
$TEXTSIZE
 40
400.0
  9
$TRACEWID
 40
0.05
  9
$TEXTSTYLE
  7
Standard
  9
$CLAYER
  8
0
  9
$CELTYPE
  6
ByLayer
  9
$CECOLOR
 62
     7
  9
$CELTSCALE
 40
1.0
  9
$DISPSILH
 70
     0
  9
$DIMSCALE
 40
1.0
  9
$DIMASZ
 40
0.18
  9
$DIMEXO
 40
0.0625
  9
$DIMDLI
 40
0.38
  9
$DIMRND
 40
0.0
  9
$DIMDLE
 40
0.0
  9
$DIMEXE
 40
0.18
  9
$DIMTP
 40
0.0
  9
$DIMTM
 40
0.0
  9
$DIMTXT
 40
7.874015748031496
  9
$DIMCEN
 40
0.09
  9
$DIMTSZ
 40
0.0
  9
$DIMTOL
 70
     0
  9
$DIMLIM
 70
     0
  9
$DIMTIH
 70
     1
  9
$DIMTOH
 70
     1
  9
$DIMSE1
 70
     0
  9
$DIMSE2
 70
     0
  9
$DIMTAD
 70
     0
  9
$DIMZIN
 70
     0
  9
$DIMBLK
  1

  9
$DIMASO
 70
     1
  9
$DIMSHO
 70
     1
  9
$DIMPOST
  1

  9
$DIMAPOST
  1

  9
$DIMALT
 70
     0
  9
$DIMALTD
 70
     2
  9
$DIMALTF
 40
25.4
  9
$DIMLFAC
 40
1.0
  9
$DIMTOFL
 70
     0
  9
$DIMTVP
 40
0.0
  9
$DIMTIX
 70
     0
  9
$DIMSOXD
 70
     0
  9
$DIMSAH
 70
     0
  9
$DIMBLK1
  1

  9
$DIMBLK2
  1

  9
$DIMSTYLE
  2
Standard
  9
$DIMCLRD
 70
     0
  9
$DIMCLRE
 70
     0
  9
$DIMCLRT
 70
     0
  9
$DIMTFAC
 40
1.0
  9
$DIMGAP
 40
0.09
  9
$DIMJUST
 70
     0
  9
$DIMSD1
 70
     0
  9
$DIMSD2
 70
     0
  9
$DIMTOLJ
 70
     1
  9
$DIMTZIN
 70
     0
  9
$DIMALTZ
 70
     0
  9
$DIMALTTZ
 70
     0
  9
$DIMUPT
 70
     0
  9
$DIMDEC
 70
     2
  9
$DIMTDEC
 70
     4
  9
$DIMALTU
 70
     2
  9
$DIMALTTD
 70
     2
  9
$DIMTXSTY
  7
Standard
  9
$DIMAUNIT
 70
     1
  9
$DIMADEC
 70
     0
  9
$DIMALTRND
 40
0.0
  9
$DIMAZIN
 70
     0
  9
$DIMDSEP
 70
    46
  9
$DIMATFIT
 70
     3
  9
$DIMFRAC
 70
     0
  9
$DIMLDRBLK
  1

  9
$DIMLUNIT
 70
     4
  9
$DIMLWD
 70
    -2
  9
$DIMLWE
 70
    -2
  9
$DIMTMOVE
 70
     0
  9
$LUNITS
 70
     2
  9
$LUPREC
 70
     2
  9
$SKETCHINC
 40
0.1
  9
$FILLETRAD
 40
4.999999999999999
  9
$AUNITS
 70
     0
  9
$AUPREC
 70
     2
  9
$MENU
  1
.
  9
$ELEVATION
 40
0.0
  9
$PELEVATION
 40
0.0
  9
$THICKNESS
 40
0.0
  9
$LIMCHECK
 70
     0
  9
$CHAMFERA
 40
4.999999999999999
  9
$CHAMFERB
 40
4.999999999999999
  9
$CHAMFERC
 40
0.0
  9
$CHAMFERD
 40
0.0
  9
$SKPOLY
 70
     0
  9
$TDCREATE
 40
2457960.659652963
  9
$TDUCREATE
 40
2457960.576319630
  9
$TDUPDATE
 40
2457960.659652963
  9
$TDUUPDATE
 40
2457960.576319630
  9
$TDINDWG
 40
0.0000003009
  9
$TDUSRTIMER
 40
0.0000003009
  9
$USRTIMER
 70
     1
  9
$ANGBASE
 50
0.0
  9
$ANGDIR
 70
     0
  9
$PDMODE
 70
     0
  9
$PDSIZE
 40
0.0
  9
$PLINEWID
 40
0.0
  9
$SPLFRAME
 70
     0
  9
$SPLINETYPE
 70
     6
  9
$SPLINESEGS
 70
     8
  9
$HANDSEED
  5
143
  9
$SURFTAB1
 70
     6
  9
$SURFTAB2
 70
     6
  9
$SURFTYPE
 70
     6
  9
$SURFU
 70
     6
  9
$SURFV
 70
     6
  9
$UCSBASE
  2

  9
$UCSNAME
  2

  9
$UCSORG
 10
0.0
 20
0.0
 30
0.0
  9
$UCSXDIR
 10
1.0
 20
0.0
 30
0.0
  9
$UCSYDIR
 10
0.0
 20
1.0
 30
0.0
  9
$UCSORTHOREF
  2

  9
$UCSORTHOVIEW
 70
     0
  9
$UCSORGTOP
 10
0.0
 20
0.0
 30
0.0
  9
$UCSORGBOTTOM
 10
0.0
 20
0.0
 30
0.0
  9
$UCSORGLEFT
 10
0.0
 20
0.0
 30
0.0
  9
$UCSORGRIGHT
 10
0.0
 20
0.0
 30
0.0
  9
$UCSORGFRONT
 10
0.0
 20
0.0
 30
0.0
  9
$UCSORGBACK
 10
0.0
 20
0.0
 30
0.0
  9
$PUCSBASE
  2

  9
$PUCSNAME
  2

  9
$PUCSORG
 10
0.0
 20
0.0
 30
0.0
  9
$PUCSXDIR
 10
1.0
 20
0.0
 30
0.0
  9
$PUCSYDIR
 10
0.0
 20
1.0
 30
0.0
  9
$PUCSORTHOREF
  2

  9
$PUCSORTHOVIEW
 70
     0
  9
$PUCSORGTOP
 10
0.0
 20
0.0
 30
0.0
  9
$PUCSORGBOTTOM
 10
0.0
 20
0.0
 30
0.0
  9
$PUCSORGLEFT
 10
0.0
 20
0.0
 30
0.0
  9
$PUCSORGRIGHT
 10
0.0
 20
0.0
 30
0.0
  9
$PUCSORGFRONT
 10
0.0
 20
0.0
 30
0.0
  9
$PUCSORGBACK
 10
0.0
 20
0.0
 30
0.0
  9
$USERI1
 70
     0
  9
$USERI2
 70
     0
  9
$USERI3
 70
     0
  9
$USERI4
 70
     0
  9
$USERI5
 70
     0
  9
$USERR1
 40
0.0
  9
$USERR2
 40
0.0
  9
$USERR3
 40
0.0
  9
$USERR4
 40
0.0
  9
$USERR5
 40
0.0
  9
$WORLDVIEW
 70
     1
  9
$SHADEDGE
 70
     3
  9
$SHADEDIF
 70
    70
  9
$TILEMODE
 70
     1
  9
$MAXACTVP
 70
    64
  9
$PINSBASE
 10
0.0
 20
0.0
 30
0.0
  9
$PLIMCHECK
 70
     0
  9
$PEXTMIN
 10
1.000000000000000E+20
 20
1.000000000000000E+20
 30
1.000000000000000E+20
  9
$PEXTMAX
 10
-1.000000000000000E+20
 20
-1.000000000000000E+20
 30
-1.000000000000000E+20
  9
$PLIMMIN
 10
0.0
 20
0.0
  9
$PLIMMAX
 10
12.0
 20
9.0
  9
$UNITMODE
 70
     0
  9
$VISRETAIN
 70
     1
  9
$PLINEGEN
 70
     0
  9
$PSLTSCALE
 70
     1
  9
$TREEDEPTH
 70
  3020
  9
$CMLSTYLE
  2
Standard
  9
$CMLJUST
 70
     0
  9
$CMLSCALE
 40
1.0
  9
$PROXYGRAPHICS
 70
     1
  9
$MEASUREMENT
 70
     1
  9
$CELWEIGHT
370
    -1
  9
$ENDCAPS
280
     0
  9
$JOINSTYLE
280
     0
  9
$LWDISPLAY
290
     0
  9
$INSUNITS
 70
     0
  9
$HYPERLINKBASE
  1

  9
$STYLESHEET
  1

  9
$XEDIT
290
     1
  9
$CEPSNTYPE
380
     0
  9
$PSTYLEMODE
290
     1
  9
$FINGERPRINTGUID
  2
{62B3DB49-1F49-440E-BD76-21FA959586F8}
  9
$VERSIONGUID
  2
{00967EEF-65B3-4EB3-87D0-97F1BA6E218C}
  9
$EXTNAMES
290
     1
  9
$PSVPSCALE
 40
0.0
  9
$OLESTARTUP
290
     0
  0
ENDSEC
  0
SECTION
  2
CLASSES
  0
CLASS
  1
ACDBDICTIONARYWDFLT
  2
AcDbDictionaryWithDefault
  3
ObjectDBX Classes
 90
        0
280
     0
281
     0
  0
CLASS
  1
DICTIONARYVAR
  2
AcDbDictionaryVar
  3
ObjectDBX Classes
 90
        0
280
     0
281
     0
  0
CLASS
  1
ACDBPLACEHOLDER
  2
AcDbPlaceHolder
  3
ObjectDBX Classes
 90
        0
280
     0
281
     0
  0
CLASS
  1
LAYOUT
  2
AcDbLayout
  3
ObjectDBX Classes
 90
        0
280
     0
281
     0
  0
ENDSEC
  0
SECTION
  2
TABLES
  0
TABLE
  2
VPORT
  5
8
330
0
100
AcDbSymbolTable
 70
     1
  0
VPORT
  5
13
330
8
100
AcDbSymbolTableRecord
100
AcDbViewportTableRecord
  2
*Active
 70
     0
 10
0.0
 20
0.0
 11
1.0
 21
1.0
 12
4419.624402529184
 22
6358.262599515017
 13
0.0
 23
0.0
 14
1.0
 24
1.0
 15
0.0
 25
0.0
 16
0.0
 26
0.0
 36
1.0
 17
0.0
 27
0.0
 37
0.0
 40
12716.52519903003
 41
0.6950993818447034
 42
50.0
 43
0.0
 44
0.0
 50
0.0
 51
0.0
 71
     0
 72
   100
 73
     1
 74
     1
 75
     0
 76
     0
 77
     0
 78
     0
281
     0
 65
     1
110
0.0
120
0.0
130
0.0
111
1.0
121
0.0
131
0.0
112
0.0
122
1.0
132
0.0
 79
     0
146
0.0
  0
ENDTAB
  0
TABLE
  2
LTYPE
  5
5
330
0
100
AcDbSymbolTable
 70
    47
  0
LTYPE
  5
14
330
5
100
AcDbSymbolTableRecord
100
AcDbLinetypeTableRecord
  2
ByBlock
 70
     0
  3

 72
    65
 73
     0
 40
0.0
  0
LTYPE
  5
15
330
5
100
AcDbSymbolTableRecord
100
AcDbLinetypeTableRecord
  2
ByLayer
 70
     0
  3

 72
    65
 73
     0
 40
0.0
  0
LTYPE
  5
16
330
5
100
AcDbSymbolTableRecord
100
AcDbLinetypeTableRecord
  2
Continuous
 70
     0
  3
Solid line
 72
    65
 73
     0
 40
0.0
  0
LTYPE
  5
2A
330
5
100
AcDbSymbolTableRecord
100
AcDbLinetypeTableRecord
  2
HIDDEN
 70
     0
  3
_ _ _ _ _ _ _ _ _ _ _ _ _ _ 
 72
    65
 73
     2
 40
9.524999999999998
 49
6.349999999999999
 74
     0
 49
-3.174999999999999
 74
     0
  0
LTYPE
  5
2B
330
5
100
AcDbSymbolTableRecord
100
AcDbLinetypeTableRecord
  2
DASHED
 70
     0
  3
__ __ __ __ __ __ __ __ __ 
 72
    65
 73
     2
 40
19.05
 49
12.7
 74
     0
 49
-6.349999999999999
 74
     0
  0
LTYPE
  5
2C
330
5
100
AcDbSymbolTableRecord
100
AcDbLinetypeTableRecord
  2
CENTER
 70
     0
  3
____ _ ____ _ ____ _ ____ _ 
 72
    65
 73
     4
 40
50.8
 49
31.75
 74
     0
 49
-6.349999999999999
 74
     0
 49
6.349999999999999
 74
     0
 49
-6.349999999999999
 74
     0
  0
LTYPE
  5
2D
330
5
100
AcDbSymbolTableRecord
100
AcDbLinetypeTableRecord
  2
PHANTOM
 70
     0
  3
_____ _ _ _____ _ _ _____ _ _ 
 72
    65
 73
     6
 40
63.50000000000001
 49
31.75
 74
     0
 49
-6.349999999999999
 74
     0
 49
6.349999999999999
 74
     0
 49
-6.349999999999999
 74
     0
 49
6.349999999999999
 74
     0
 49
-6.349999999999999
 74
     0
  0
LTYPE
  5
2E
330
5
100
AcDbSymbolTableRecord
100
AcDbLinetypeTableRecord
  2
DOT
 70
     0
  3
...........................
 72
    65
 73
     2
 40
6.349999999999999
 49
0.0
 74
     0
 49
-6.349999999999999
 74
     0
  0
LTYPE
  5
2F
330
5
100
AcDbSymbolTableRecord
100
AcDbLinetypeTableRecord
  2
DASHDOT
 70
     0
  3
__ . __ . __ . __ . __ . __ . 
 72
    65
 73
     4
 40
25.4
 49
12.7
 74
     0
 49
-6.349999999999999
 74
     0
 49
0.0
 74
     0
 49
-6.349999999999999
 74
     0
  0
LTYPE
  5
30
330
5
100
AcDbSymbolTableRecord
100
AcDbLinetypeTableRecord
  2
DIVIDE
 70
     0
  3
__ . . __ . . __ . . __ . . 
 72
    65
 73
     6
 40
31.75
 49
12.7
 74
     0
 49
-6.349999999999999
 74
     0
 49
0.0
 74
     0
 49
-6.349999999999999
 74
     0
 49
0.0
 74
     0
 49
-6.349999999999999
 74
     0
  0
LTYPE
  5
31
330
5
100
AcDbSymbolTableRecord
100
AcDbLinetypeTableRecord
  2
BORDER
 70
     0
  3
__ __ . __ __ . __ __ . __ __ .
 72
    65
 73
     6
 40
44.44999999999999
 49
12.7
 74
     0
 49
-6.349999999999999
 74
     0
 49
12.7
 74
     0
 49
-6.349999999999999
 74
     0
 49
0.0
 74
     0
 49
-6.349999999999999
 74
     0
  0
LTYPE
  5
32
330
5
100
AcDbSymbolTableRecord
100
AcDbLinetypeTableRecord
  2
RAND
 70
     0
  3
Rand __ __ . __ __ . __ __ . __
 72
    65
 73
     6
 40
1.75
 49
0.5
 74
     0
 49
-0.25
 74
     0
 49
0.5
 74
     0
 49
-0.25
 74
     0
 49
0.0
 74
     0
 49
-0.25
 74
     0
  0
LTYPE
  5
33
330
5
100
AcDbSymbolTableRecord
100
AcDbLinetypeTableRecord
  2
RAND2
 70
     0
  3
Rand (.5x) __.__.__.__.__.__.__
 72
    65
 73
     6
 40
0.875
 49
0.25
 74
     0
 49
-0.125
 74
     0
 49
0.25
 74
     0
 49
-0.125
 74
     0
 49
0.0
 74
     0
 49
-0.125
 74
     0
  0
LTYPE
  5
34
330
5
100
AcDbSymbolTableRecord
100
AcDbLinetypeTableRecord
  2
RANDX2
 70
     0
  3
Rand (2x) ____  ____  .  ____  
 72
    65
 73
     6
 40
3.5
 49
1.0
 74
     0
 49
-0.5
 74
     0
 49
1.0
 74
     0
 49
-0.5
 74
     0
 49
0.0
 74
     0
 49
-0.5
 74
     0
  0
LTYPE
  5
35
330
5
100
AcDbSymbolTableRecord
100
AcDbLinetypeTableRecord
  2
MITTE
 70
     0
  3
Mitte ____ _ ____ _ ____ _ ____
 72
    65
 73
     4
 40
2.0
 49
1.25
 74
     0
 49
-0.25
 74
     0
 49
0.25
 74
     0
 49
-0.25
 74
     0
  0
LTYPE
  5
36
330
5
100
AcDbSymbolTableRecord
100
AcDbLinetypeTableRecord
  2
MITTE2
 70
     0
  3
Mitte (.5x) ___ _ ___ _ ___ _ _
 72
    65
 73
     4
 40
1.125
 49
0.7500000000000001
 74
     0
 49
-0.125
 74
     0
 49
0.125
 74
     0
 49
-0.125
 74
     0
  0
LTYPE
  5
37
330
5
100
AcDbSymbolTableRecord
100
AcDbLinetypeTableRecord
  2
MITTEX2
 70
     0
  3
Mitte (2x) ________  __  ______
 72
    65
 73
     4
 40
4.0
 49
2.5
 74
     0
 49
-0.5
 74
     0
 49
0.5
 74
     0
 49
-0.5
 74
     0
  0
LTYPE
  5
38
330
5
100
AcDbSymbolTableRecord
100
AcDbLinetypeTableRecord
  2
STRICHPUNKT
 70
     0
  3
Strichpunkt __ . __ . __ . __ .
 72
    65
 73
     4
 40
1.0
 49
0.5
 74
     0
 49
-0.25
 74
     0
 49
0.0
 74
     0
 49
-0.25
 74
     0
  0
LTYPE
  5
39
330
5
100
AcDbSymbolTableRecord
100
AcDbLinetypeTableRecord
  2
STRICHPUNKT2
 70
     0
  3
Strichpunkt (.5x) _._._._._._._
 72
    65
 73
     4
 40
0.5
 49
0.25
 74
     0
 49
-0.125
 74
     0
 49
0.0
 74
     0
 49
-0.125
 74
     0
  0
LTYPE
  5
3A
330
5
100
AcDbSymbolTableRecord
100
AcDbLinetypeTableRecord
  2
STRICHPUNKTX2
 70
     0
  3
Strichpunkt (2x) ____  .  ____ 
 72
    65
 73
     4
 40
2.0
 49
1.0
 74
     0
 49
-0.5
 74
     0
 49
0.0
 74
     0
 49
-0.5
 74
     0
  0
LTYPE
  5
3B
330
5
100
AcDbSymbolTableRecord
100
AcDbLinetypeTableRecord
  2
STRICHLINIE
 70
     0
  3
Strichlinie __ __ __ __ __ __ _
 72
    65
 73
     2
 40
0.75
 49
0.5
 74
     0
 49
-0.25
 74
     0
  0
LTYPE
  5
3C
330
5
100
AcDbSymbolTableRecord
100
AcDbLinetypeTableRecord
  2
STRICHLINIE2
 70
     0
  3
Strichlinie (.5x) _ _ _ _ _ _ _
 72
    65
 73
     2
 40
0.375
 49
0.25
 74
     0
 49
-0.125
 74
     0
  0
LTYPE
  5
3D
330
5
100
AcDbSymbolTableRecord
100
AcDbLinetypeTableRecord
  2
STRICHLINIEX2
 70
     0
  3
Strichlinie (2x) ____  ____  __
 72
    65
 73
     2
 40
1.5
 49
1.0
 74
     0
 49
-0.5
 74
     0
  0
LTYPE
  5
3E
330
5
100
AcDbSymbolTableRecord
100
AcDbLinetypeTableRecord
  2
GETRENNT
 70
     0
  3
Getrennt ____ . . ____ . . ____
 72
    65
 73
     6
 40
1.25
 49
0.5
 74
     0
 49
-0.25
 74
     0
 49
0.0
 74
     0
 49
-0.25
 74
     0
 49
0.0
 74
     0
 49
-0.25
 74
     0
  0
LTYPE
  5
3F
330
5
100
AcDbSymbolTableRecord
100
AcDbLinetypeTableRecord
  2
GETRENNT2
 70
     0
  3
Getrennt (.5x) __..__..__..__..
 72
    65
 73
     6
 40
0.625
 49
0.25
 74
     0
 49
-0.125
 74
     0
 49
0.0
 74
     0
 49
-0.125
 74
     0
 49
0.0
 74
     0
 49
-0.125
 74
     0
  0
LTYPE
  5
40
330
5
100
AcDbSymbolTableRecord
100
AcDbLinetypeTableRecord
  2
GETRENNTX2
 70
     0
  3
Getrennt (2x) ________  .  .  _
 72
    65
 73
     6
 40
2.5
 49
1.0
 74
     0
 49
-0.5
 74
     0
 49
0.0
 74
     0
 49
-0.5
 74
     0
 49
0.0
 74
     0
 49
-0.5
 74
     0
  0
LTYPE
  5
41
330
5
100
AcDbSymbolTableRecord
100
AcDbLinetypeTableRecord
  2
PUNKT
 70
     0
  3
Punkt . . . . . . . . . . . . .
 72
    65
 73
     2
 40
0.25
 49
0.0
 74
     0
 49
-0.25
 74
     0
  0
LTYPE
  5
42
330
5
100
AcDbSymbolTableRecord
100
AcDbLinetypeTableRecord
  2
PUNKT2
 70
     0
  3
Punkt (.5x) ...................
 72
    65
 73
     2
 40
0.125
 49
0.0
 74
     0
 49
-0.125
 74
     0
  0
LTYPE
  5
43
330
5
100
AcDbSymbolTableRecord
100
AcDbLinetypeTableRecord
  2
PUNKTX2
 70
     0
  3
Punkt (2x) .  .  .  .  .  .  . 
 72
    65
 73
     2
 40
0.5
 49
0.0
 74
     0
 49
-0.5
 74
     0
  0
LTYPE
  5
44
330
5
100
AcDbSymbolTableRecord
100
AcDbLinetypeTableRecord
  2
VERDECKT
 70
     0
  3
Verdeckt __ __ __ __ __ __ __ _
 72
    65
 73
     2
 40
0.375
 49
0.25
 74
     0
 49
-0.125
 74
     0
  0
LTYPE
  5
45
330
5
100
AcDbSymbolTableRecord
100
AcDbLinetypeTableRecord
  2
VERDECKT2
 70
     0
  3
Verdeckt (.5x) _ _ _ _ _ _ _ _ 
 72
    65
 73
     2
 40
0.1875
 49
0.125
 74
     0
 49
-0.0625
 74
     0
  0
LTYPE
  5
46
330
5
100
AcDbSymbolTableRecord
100
AcDbLinetypeTableRecord
  2
VERDECKTX2
 70
     0
  3
Verdeckt (2x) ____ ____ ____ __
 72
    65
 73
     2
 40
0.75
 49
0.5
 74
     0
 49
-0.25
 74
     0
  0
LTYPE
  5
47
330
5
100
AcDbSymbolTableRecord
100
AcDbLinetypeTableRecord
  2
PHANTOM2
 70
     0
  3
Phantom (.5x) ___ _ _ ___ _ _ _
 72
    65
 73
     6
 40
1.25
 49
0.6250000000000001
 74
     0
 49
-0.125
 74
     0
 49
0.125
 74
     0
 49
-0.125
 74
     0
 49
0.125
 74
     0
 49
-0.125
 74
     0
  0
LTYPE
  5
48
330
5
100
AcDbSymbolTableRecord
100
AcDbLinetypeTableRecord
  2
PHANTOMX2
 70
     0
  3
Phantom (2x) ____________    __
 72
    65
 73
     6
 40
5.0
 49
2.5
 74
     0
 49
-0.5
 74
     0
 49
0.5
 74
     0
 49
-0.5
 74
     0
 49
0.5
 74
     0
 49
-0.5
 74
     0
  0
LTYPE
  5
49
330
5
100
AcDbSymbolTableRecord
100
AcDbLinetypeTableRecord
  2
PUNKTE
 70
     0
  3
Punkte - - - - - - - - - - - - 
 72
    65
 73
     2
 40
0.1
 49
0.05
 74
     0
 49
-0.05
 74
     0
  0
LTYPE
  5
4A
330
5
100
AcDbSymbolTableRecord
100
AcDbLinetypeTableRecord
  2
ACAD_ISO02W100
 70
     0
  3
__ __ __ __ __ __ __ __ __ __ _
 72
    65
 73
     2
 40
15.0
 49
12.0
 74
     0
 49
-3.0
 74
     0
  0
LTYPE
  5
4B
330
5
100
AcDbSymbolTableRecord
100
AcDbLinetypeTableRecord
  2
ACAD_ISO03W100
 70
     0
  3
__    __    __    __    __    _
 72
    65
 73
     2
 40
30.0
 49
12.0
 74
     0
 49
-18.0
 74
     0
  0
LTYPE
  5
4C
330
5
100
AcDbSymbolTableRecord
100
AcDbLinetypeTableRecord
  2
ACAD_ISO04W100
 70
     0
  3
____ . ____ . ____ . ____ . ___
 72
    65
 73
     4
 40
30.5
 49
24.0
 74
     0
 49
-3.0
 74
     0
 49
0.5
 74
     0
 49
-3.0
 74
     0
  0
LTYPE
  5
4D
330
5
100
AcDbSymbolTableRecord
100
AcDbLinetypeTableRecord
  2
ACAD_ISO05W100
 70
     0
  3
____ .. ____ .. ____ .. ____ ..
 72
    65
 73
     6
 40
34.0
 49
24.0
 74
     0
 49
-3.0
 74
     0
 49
0.5
 74
     0
 49
-3.0
 74
     0
 49
0.5
 74
     0
 49
-3.0
 74
     0
  0
LTYPE
  5
4E
330
5
100
AcDbSymbolTableRecord
100
AcDbLinetypeTableRecord
  2
ACAD_ISO06W100
 70
     0
  3
____ ... ____ ... ____ ... ____
 72
    65
 73
     6
 40
34.0
 49
24.0
 74
     0
 49
-3.0
 74
     0
 49
0.5
 74
     0
 49
-3.0
 74
     0
 49
0.5
 74
     0
 49
-3.0
 74
     0
  0
LTYPE
  5
4F
330
5
100
AcDbSymbolTableRecord
100
AcDbLinetypeTableRecord
  2
ACAD_ISO07W100
 70
     0
  3
. . . . . . . . . . . . . . . .
 72
    65
 73
     2
 40
3.5
 49
0.5
 74
     0
 49
-3.0
 74
     0
  0
LTYPE
  5
50
330
5
100
AcDbSymbolTableRecord
100
AcDbLinetypeTableRecord
  2
ACAD_ISO08W100
 70
     0
  3
____ __ ____ __ ____ __ ____ __
 72
    65
 73
     4
 40
36.0
 49
24.0
 74
     0
 49
-3.0
 74
     0
 49
6.0
 74
     0
 49
-3.0
 74
     0
  0
LTYPE
  5
51
330
5
100
AcDbSymbolTableRecord
100
AcDbLinetypeTableRecord
  2
ACAD_ISO09W100
 70
     0
  3
____ __ __ ____ __ __ ____ __ _
 72
    65
 73
     6
 40
45.0
 49
24.0
 74
     0
 49
-3.0
 74
     0
 49
6.0
 74
     0
 49
-3.0
 74
     0
 49
6.0
 74
     0
 49
-3.0
 74
     0
  0
LTYPE
  5
52
330
5
100
AcDbSymbolTableRecord
100
AcDbLinetypeTableRecord
  2
ACAD_ISO10W100
 70
     0
  3
__ . __ . __ . __ . __ . __ . _
 72
    65
 73
     4
 40
18.5
 49
12.0
 74
     0
 49
-3.0
 74
     0
 49
0.5
 74
     0
 49
-3.0
 74
     0
  0
LTYPE
  5
53
330
5
100
AcDbSymbolTableRecord
100
AcDbLinetypeTableRecord
  2
ACAD_ISO11W100
 70
     0
  3
__ __ . __ __ . __ __ . __ __ .
 72
    65
 73
     6
 40
33.5
 49
12.0
 74
     0
 49
-3.0
 74
     0
 49
12.0
 74
     0
 49
-3.0
 74
     0
 49
0.5
 74
     0
 49
-3.0
 74
     0
  0
LTYPE
  5
54
330
5
100
AcDbSymbolTableRecord
100
AcDbLinetypeTableRecord
  2
ACAD_ISO12W100
 70
     0
  3
__ . . __ . . __ . . __ . . __ 
 72
    65
 73
     6
 40
22.0
 49
12.0
 74
     0
 49
-3.0
 74
     0
 49
0.5
 74
     0
 49
-3.0
 74
     0
 49
0.5
 74
     0
 49
-3.0
 74
     0
  0
LTYPE
  5
55
330
5
100
AcDbSymbolTableRecord
100
AcDbLinetypeTableRecord
  2
ACAD_ISO13W100
 70
     0
  3
__ __ . . __ __ . . __ __ . . _
 72
    65
 73
     6
 40
33.5
 49
12.0
 74
     0
 49
-3.0
 74
     0
 49
12.0
 74
     0
 49
-3.0
 74
     0
 49
0.5
 74
     0
 49
-3.0
 74
     0
  0
LTYPE
  5
56
330
5
100
AcDbSymbolTableRecord
100
AcDbLinetypeTableRecord
  2
ACAD_ISO14W100
 70
     0
  3
__ . . . __ . . . __ . . . __ .
 72
    65
 73
     6
 40
22.0
 49
12.0
 74
     0
 49
-3.0
 74
     0
 49
0.5
 74
     0
 49
-3.0
 74
     0
 49
0.5
 74
     0
 49
-3.0
 74
     0
  0
LTYPE
  5
57
330
5
100
AcDbSymbolTableRecord
100
AcDbLinetypeTableRecord
  2
ACAD_ISO15W100
 70
     0
  3
__ __ . . . __ __ . . . __ __ .
 72
    65
 73
     6
 40
33.5
 49
12.0
 74
     0
 49
-3.0
 74
     0
 49
12.0
 74
     0
 49
-3.0
 74
     0
 49
0.5
 74
     0
 49
-3.0
 74
     0
  0
ENDTAB
  0
TABLE
  2
LAYER
  5
2
330
0
100
AcDbSymbolTable
 70
     4
  0
LAYER
  5
10
330
2
100
AcDbSymbolTableRecord
100
AcDbLayerTableRecord
  2
0
 70
     0
 62
     7
  6
Continuous
370
    -3
390
F
  0
LAYER
  5
58
330
2
100
AcDbSymbolTableRecord
100
AcDbLayerTableRecord
  2
1
 70
     0
 62
     7
  6
Continuous
370
    -3
390
F
  0
LAYER
  5
59
330
2
100
AcDbSymbolTableRecord
100
AcDbLayerTableRecord
  2
SPEICHERKREIS
 70
     0
 62
     7
  6
Continuous
370
    -3
390
F
  0
LAYER
  5
5A
330
2
100
AcDbSymbolTableRecord
100
AcDbLayerTableRecord
  2
TXT-070
 70
     0
 62
     7
  6
Continuous
370
    -3
390
F
  0
ENDTAB
  0
TABLE
  2
STYLE
  5
3
330
0
100
AcDbSymbolTable
 70
     6
  0
STYLE
  5
11
330
3
100
AcDbSymbolTableRecord
100
AcDbTextStyleTableRecord
  2
Standard
 70
     0
 40
0.0
 41
1.0
 50
0.0
 71
     0
 42
400.0
  3
txt
  4

  0
STYLE
  5
5B
330
3
100
AcDbSymbolTableRecord
100
AcDbTextStyleTableRecord
  2
ITALIC
 70
     0
 40
0.0
 41
1.0
 50
0.0
 71
     0
 42
400.0
  3
ITALIC
  4

  0
STYLE
  5
5C
330
3
100
AcDbSymbolTableRecord
100
AcDbTextStyleTableRecord
  2
SIMPLEX
 70
     0
 40
0.0
 41
1.0
 50
0.0
 71
     0
 42
400.0
  3
SIMPLEX
  4

  0
STYLE
  5
5D
330
3
100
AcDbSymbolTableRecord
100
AcDbTextStyleTableRecord
  2
COMPLEX
 70
     0
 40
0.0
 41
1.0
 50
0.0
 71
     0
 42
400.0
  3
COMPLEX
  4

  0
STYLE
  5
F0
330
3
100
AcDbSymbolTableRecord
100
AcDbTextStyleTableRecord
  2
FRANKLINGOTHICDEMI
 70
     0
 40
0.0
 41
1.0
 50
0.0
 71
     0
 42
400.0
  3
FRADM.TTF
  4

1001
ACAD
1000
Franklin Gothic Demi
1071
        0
  0
STYLE
  5
135
330
3
100
AcDbSymbolTableRecord
100
AcDbTextStyleTableRecord
  2
ARIAL
 70
     0
 40
0.0
 41
1.0
 50
0.0
 71
     0
 42
400.0
  3
arial.ttf
  4

1001
ACAD
1000
Arial
1071
        0
  0
ENDTAB
  0
TABLE
  2
VIEW
  5
6
330
0
100
AcDbSymbolTable
 70
     0
  0
ENDTAB
  0
TABLE
  2
UCS
  5
7
330
0
100
AcDbSymbolTable
 70
     0
  0
ENDTAB
  0
TABLE
  2
APPID
  5
9
330
0
100
AcDbSymbolTable
 70
     1
  0
APPID
  5
12
330
9
100
AcDbSymbolTableRecord
100
AcDbRegAppTableRecord
  2
ACAD
 70
     0
  0
ENDTAB
  0
TABLE
  2
DIMSTYLE
  5
A
330
0
100
AcDbSymbolTable
 70
     1
100
AcDbDimStyleTable
 71
     0
  0
DIMSTYLE
105
29
330
A
100
AcDbSymbolTableRecord
100
AcDbDimStyleTableRecord
  2
Standard
 70
     0
340
11
  0
ENDTAB
  0
TABLE
  2
BLOCK_RECORD
  5
1
330
0
100
AcDbSymbolTable
 70
     1
  0
BLOCK_RECORD
  5
21
330
1
100
AcDbSymbolTableRecord
100
AcDbBlockTableRecord
  2
*Model_Space
340
24
  0
BLOCK_RECORD
  5
1D
330
1
100
AcDbSymbolTableRecord
100
AcDbBlockTableRecord
  2
*Paper_Space
340
20
  0
BLOCK_RECORD
  5
25
330
1
100
AcDbSymbolTableRecord
100
AcDbBlockTableRecord
  2
*Paper_Space0
340
28
  0
ENDTAB
  0
ENDSEC
  0
SECTION
  2
BLOCKS
  0
BLOCK
  5
22
330
21
100
AcDbEntity
  8
0
100
AcDbBlockBegin
  2
*Model_Space
 70
     0
 10
0.0
 20
0.0
 30
0.0
  3
*Model_Space
  1

  0
ENDBLK
  5
23
330
21
100
AcDbEntity
  8
0
100
AcDbBlockEnd
  0
BLOCK
  5
1E
330
1D
100
AcDbEntity
 67
     1
  8
0
100
AcDbBlockBegin
  2
*Paper_Space
 70
     0
 10
0.0
 20
0.0
 30
0.0
  3
*Paper_Space
  1

  0
ENDBLK
  5
1F
330
1D
100
AcDbEntity
 67
     1
  8
0
100
AcDbBlockEnd
  0
BLOCK
  5
26
330
25
100
AcDbEntity
  8
0
100
AcDbBlockBegin
  2
*Paper_Space0
 70
     0
 10
0.0
 20
0.0
 30
0.0
  3
*Paper_Space0
  1

  0
ENDBLK
  5
27
330
25
100
AcDbEntity
  8
0
100
AcDbBlockEnd
  0
ENDSEC
  0
SECTION
  2
ENTITIES
  0
ARC
  5
5F
102
{ACAD_REACTORS
330
5E
102
}
330
21
100
AcDbEntity
  8
1
  6
Continuous
 62
     7
100
AcDbCircle
 10
6438.74705171332
 20
9013.079550524778
 30
0.0
 40
131.3541674630823
100
AcDbArc
 50
321.3700627929991
 51
355.5853052539559
  0
ARC
  5
60
102
{ACAD_REACTORS
330
5E
102
}
330
21
100
AcDbEntity
  8
1
  6
Continuous
 62
     7
100
AcDbCircle
 10
6069.349859960846
 20
9015.56306067531
 30
0.0
 40
139.6405475107781
100
AcDbArc
 50
185.1746540235753
 51
217.035442096588
  0
ARC
  5
61
102
{ACAD_REACTORS
330
5E
102
}
330
21
100
AcDbEntity
  8
1
  6
Continuous
 62
     7
100
AcDbCircle
 10
6250.278497424643
 20
9952.246888557354
 30
0.0
 40
1061.75719890427
100
AcDbArc
 50
254.0321486569131
 51
285.8932244193495
  0
ARC
  5
62
102
{ACAD_REACTORS
330
5E
102
}
330
21
100
AcDbEntity
  8
1
  6
Continuous
 62
     7
100
AcDbCircle
 10
6249.744498621057
 20
9296.102218558067
 30
0.0
 40
457.7809920671068
100
AcDbArc
 50
260.6764976840689
 51
279.3235023159315
  0
LINE
  5
63
102
{ACAD_REACTORS
330
5E
102
}
330
21
100
AcDbEntity
  8
1
  6
Continuous
 62
     7
100
AcDbLine
 10
6569.937221877633
 20
9100.990213805618
 30
0.0
 11
6475.157397127157
 21
9100.990213805618
 31
0.0
  0
LINE
  5
64
102
{ACAD_REACTORS
330
5E
102
}
330
21
100
AcDbEntity
  8
1
  6
Continuous
 62
     7
100
AcDbLine
 10
6569.937221877633
 20
9112.289482462976
 30
0.0
 11
6475.61419415713
 21
9112.289482462976
 31
0.0
  0
CIRCLE
  5
65
102
{ACAD_REACTORS
330
5E
102
}
330
21
100
AcDbEntity
  8
1
  6
Continuous
 62
     7
100
AcDbCircle
 10
6250.079960534272
 20
9660.981968464504
 30
0.0
 40
45.4722223318507
  0
LINE
  5
66
102
{ACAD_REACTORS
330
5E
102
}
330
21
100
AcDbEntity
  8
1
  6
Continuous
 62
     7
100
AcDbLine
 10
6541.537049747936
 20
8931.076738655232
 30
0.0
 11
6541.537049747939
 21
9664.759131394559
 31
0.0
  0
LINE
  5
67
102
{ACAD_REACTORS
330
5E
102
}
330
21
100
AcDbEntity
  8
1
  6
Continuous
 62
     7
100
AcDbLine
 10
5957.687840755208
 20
8931.456312065236
 30
0.0
 11
5957.687840755209
 21
9664.759131394555
 31
0.0
  0
ARC
  5
68
102
{ACAD_REACTORS
330
5E
102
}
330
21
100
AcDbEntity
  8
1
  6
Continuous
 62
     7
100
AcDbCircle
 10
6249.612445251574
 20
9674.139291817672
 30
0.0
 40
291.5732441107651
100
AcDbArc
 50
358.1564277132882
 51
181.8435722867118
  0
LINE
  5
69
102
{ACAD_REACTORS
330
5E
102
}
330
21
100
AcDbEntity
  8
1
  6
Continuous
 62
     7
100
AcDbLine
 10
6569.937221877633
 20
9438.67147320234
 30
0.0
 11
6500.867981523754
 21
9438.67147320234
 31
0.0
  0
CIRCLE
  5
6A
102
{ACAD_REACTORS
330
5E
102
}
330
21
100
AcDbEntity
  8
1
  6
Continuous
 62
     7
100
AcDbCircle
 10
6474.900958672954
 20
9432.339030425181
 30
0.0
 40
26.68459779348411
  0
CIRCLE
  5
6B
102
{ACAD_REACTORS
330
5E
102
}
330
21
100
AcDbEntity
  8
1
  6
Continuous
 62
     7
100
AcDbCircle
 10
6024.884124234176
 20
9430.28856671002
 30
0.0
 40
26.68459779348411
  0
LINE
  5
6C
102
{ACAD_REACTORS
330
5E
102
}
330
21
100
AcDbEntity
  8
1
  6
Continuous
 62
     7
100
AcDbLine
 10
5999.506794084531
 20
9438.67147320234
 30
0.0
 11
5930.038734550393
 21
9438.67147320234
 31
0.0
  0
ARC
  5
6D
102
{ACAD_REACTORS
330
5E
102
}
330
21
100
AcDbEntity
  8
1
  6
Continuous
 62
     7
100
AcDbCircle
 10
6250.187387804144
 20
9644.857306566251
 30
0.0
 40
324.2488200161519
100
AcDbArc
 50
227.8167921655326
 51
240.9867508050601
  0
ELLIPSE
  5
6E
102
{ACAD_REACTORS
330
5E
102
}
330
21
100
AcDbEntity
  8
1
  6
Continuous
 62
     7
100
AcDbEllipse
 10
6295.053818632375
 20
8848.902308127817
 30
0.0
 11
-7.818182428023967
 21
0.2358539448475907
 31
0.0
210
0.0
220
0.0
230
1.0
 40
0.666742839106284
 41
6.283060143048957
 42
12.56624545022854
  0
ELLIPSE
  5
6F
102
{ACAD_REACTORS
330
5E
102
}
330
21
100
AcDbEntity
  8
1
  6
Continuous
 62
     7
100
AcDbEllipse
 10
6204.552662711872
 20
8848.429295351403
 30
0.0
 11
-7.818176944870502
 21
0.2360353190528669
 31
0.0
210
0.0
220
0.0
230
1.0
 40
0.6051642751684886
 41
6.283085742117756
 42
12.56627104929734
  0
CIRCLE
  5
70
102
{ACAD_REACTORS
330
5E
102
}
330
21
100
AcDbEntity
  8
1
  6
Continuous
 62
     7
100
AcDbCircle
 10
6391.430449163921
 20
9111.606632752026
 30
0.0
 40
37.950331438159
  0
CIRCLE
  5
71
102
{ACAD_REACTORS
330
5E
102
}
330
21
100
AcDbEntity
  8
1
  6
Continuous
 62
     7
100
AcDbCircle
 10
6391.430449163921
 20
9111.606632752026
 30
0.0
 40
47.51907684375175
  0
CIRCLE
  5
72
102
{ACAD_REACTORS
330
5E
102
}
330
21
100
AcDbEntity
  8
1
  6
Continuous
 62
     7
100
AcDbCircle
 10
6391.430449163921
 20
9111.606632752026
 30
0.0
 40
61.46486197324603
  0
CIRCLE
  5
73
102
{ACAD_REACTORS
330
5E
102
}
330
21
100
AcDbEntity
  8
1
  6
Continuous
 62
     7
100
AcDbCircle
 10
6391.430449163921
 20
9111.606632752026
 30
0.0
 40
68.79649086441498
  0
LINE
  5
74
102
{ACAD_REACTORS
330
5E
102
}
330
21
100
AcDbEntity
  8
1
  6
Continuous
 62
     7
100
AcDbLine
 10
6495.535630638556
 20
9974.956881369919
 30
0.0
 11
6495.535630638556
 21
9965.148488438181
 31
0.0
  0
LINE
  5
75
102
{ACAD_REACTORS
330
5E
102
}
330
21
100
AcDbEntity
  8
1
  6
Continuous
 62
     7
100
AcDbLine
 10
6455.415662711324
 20
9974.956881369919
 30
0.0
 11
6455.415662711324
 21
9965.148488438181
 31
0.0
  0
LINE
  5
76
102
{ACAD_REACTORS
330
5E
102
}
330
21
100
AcDbEntity
  8
1
  6
Continuous
 62
     7
100
AcDbLine
 10
6407.107946227518
 20
9974.956881369919
 30
0.0
 11
6407.107946227518
 21
9965.148488438181
 31
0.0
  0
LINE
  5
77
102
{ACAD_REACTORS
330
5E
102
}
330
21
100
AcDbEntity
  8
1
  6
Continuous
 62
     7
100
AcDbLine
 10
6366.169203444631
 20
9974.956881369919
 30
0.0
 11
6366.169203444631
 21
9965.148488438181
 31
0.0
  0
LINE
  5
78
102
{ACAD_REACTORS
330
5E
102
}
330
21
100
AcDbEntity
  8
1
  6
Continuous
 62
     7
100
AcDbLine
 10
6133.194132655926
 20
9974.956881369919
 30
0.0
 11
6133.194132655926
 21
9965.148488438181
 31
0.0
  0
LINE
  5
79
102
{ACAD_REACTORS
330
5E
102
}
330
21
100
AcDbEntity
  8
1
  6
Continuous
 62
     7
100
AcDbLine
 10
6092.937702252752
 20
9974.956881369919
 30
0.0
 11
6092.937702252752
 21
9965.148488438181
 31
0.0
  0
LINE
  5
7A
102
{ACAD_REACTORS
330
5E
102
}
330
21
100
AcDbEntity
  8
1
  6
Continuous
 62
     7
100
AcDbLine
 10
6045.858148052431
 20
9974.956881369919
 30
0.0
 11
6045.858148052431
 21
9965.148488438181
 31
0.0
  0
LINE
  5
7B
102
{ACAD_REACTORS
330
5E
102
}
330
21
100
AcDbEntity
  8
1
  6
Continuous
 62
     7
100
AcDbLine
 10
6004.919405269543
 20
9974.956881369919
 30
0.0
 11
6004.919405269543
 21
9965.148488438181
 31
0.0
  0
LINE
  5
7C
102
{ACAD_REACTORS
330
5E
102
}
330
21
100
AcDbEntity
  8
1
  6
Continuous
 62
     7
100
AcDbLine
 10
6012.43366332846
 20
9965.148488438181
 30
0.0
 11
6012.43366332846
 21
9879.143897189585
 31
0.0
  0
LINE
  5
7D
102
{ACAD_REACTORS
330
5E
102
}
330
21
100
AcDbEntity
  8
1
  6
Continuous
 62
     7
100
AcDbLine
 10
6037.136215464357
 20
9965.148488438181
 30
0.0
 11
6037.136215464357
 21
9903.590936872117
 31
0.0
  0
LINE
  5
7E
102
{ACAD_REACTORS
330
5E
102
}
330
21
100
AcDbEntity
  8
1
  6
Continuous
 62
     7
100
AcDbLine
 10
6100.299359314405
 20
9965.148488438181
 30
0.0
 11
6100.299359314405
 21
9947.319429359529
 31
0.0
  0
LINE
  5
7F
102
{ACAD_REACTORS
330
5E
102
}
330
21
100
AcDbEntity
  8
1
  6
Continuous
 62
     7
100
AcDbLine
 10
6125.174961960105
 20
9965.148488438181
 30
0.0
 11
6125.174961960105
 21
9959.100870422378
 31
0.0
  0
LINE
  5
80
102
{ACAD_REACTORS
330
5E
102
}
330
21
100
AcDbEntity
  8
1
  6
Continuous
 62
     7
100
AcDbLine
 10
6374.580368015944
 20
9965.148488438181
 30
0.0
 11
6374.580368015944
 21
9959.054722695313
 31
0.0
  0
LINE
  5
81
102
{ACAD_REACTORS
330
5E
102
}
330
21
100
AcDbEntity
  8
1
  6
Continuous
 62
     7
100
AcDbLine
 10
6399.533117884955
 20
9965.148488438181
 30
0.0
 11
6399.533117884955
 21
9947.221031333711
 31
0.0
  0
LINE
  5
82
102
{ACAD_REACTORS
330
5E
102
}
330
21
100
AcDbEntity
  8
1
  6
Continuous
 62
     7
100
AcDbLine
 10
6487.085937314721
 20
9965.148488438181
 30
0.0
 11
6487.085937314721
 21
9879.283338123794
 31
0.0
  0
LINE
  5
83
102
{ACAD_REACTORS
330
5E
102
}
330
21
100
AcDbEntity
  8
1
  6
Continuous
 62
     7
100
AcDbLine
 10
6462.407393488226
 20
9965.148488438181
 30
0.0
 11
6462.407393488226
 21
9903.681800236375
 31
0.0
  0
ARC
  5
84
102
{ACAD_REACTORS
330
5E
102
}
330
21
100
AcDbEntity
  8
1
  6
Continuous
 62
     7
100
AcDbCircle
 10
6544.081894492492
 20
9952.210986028545
 30
0.0
 40
99.89805133969033
100
AcDbArc
 50
210.7330885855425
 51
239.8796946589998
  0
LINE
  5
85
102
{ACAD_REACTORS
330
5E
102
}
330
21
100
AcDbEntity
  8
1
  6
Continuous
 62
     7
100
AcDbLine
 10
6493.874303972617
 20
9871.215721509567
 30
0.0
 11
6493.874303972617
 21
9865.741036597357
 31
0.0
  0
LINE
  5
86
102
{ACAD_REACTORS
330
5E
102
}
330
21
100
AcDbEntity
  8
1
  6
Continuous
 62
     7
100
AcDbLine
 10
6458.065797815047
 20
9901.159145657903
 30
0.0
 11
6458.164355959299
 21
9907.377977725145
 31
0.0
  0
LINE
  5
87
102
{ACAD_REACTORS
330
5E
102
}
330
21
100
AcDbEntity
  8
1
  6
Continuous
 62
     7
100
AcDbLine
 10
6405.372463523169
 20
9939.515114200755
 30
0.0
 11
6405.362948379476
 21
9944.064139419566
 31
0.0
  0
LINE
  5
88
102
{ACAD_REACTORS
330
5E
102
}
330
21
100
AcDbEntity
  8
1
  6
Continuous
 62
     7
100
AcDbLine
 10
6370.1446038943
 20
9956.243318099176
 30
0.0
 11
6370.142653920431
 21
9960.890415278576
 31
0.0
  0
LINE
  5
89
102
{ACAD_REACTORS
330
5E
102
}
330
21
100
AcDbEntity
  8
1
  6
Continuous
 62
     7
100
AcDbLine
 10
6351.483015095968
 20
9967.779849666197
 30
0.0
 11
6351.483015095968
 21
9960.849020321109
 31
0.0
  0
LINE
  5
8A
102
{ACAD_REACTORS
330
5E
102
}
330
21
100
AcDbEntity
  8
1
  6
Continuous
 62
     7
100
AcDbLine
 10
6351.483015095968
 20
9960.849020321109
 30
0.0
 11
6309.233348065003
 21
9971.097630476769
 31
0.0
  0
LINE
  5
8B
102
{ACAD_REACTORS
330
5E
102
}
330
21
100
AcDbEntity
  8
1
  6
Continuous
 62
     7
100
AcDbLine
 10
6309.233348065003
 20
9971.097630476769
 30
0.0
 11
6309.987646823979
 21
9978.627639657389
 31
0.0
  0
LINE
  5
8C
102
{ACAD_REACTORS
330
5E
102
}
330
21
100
AcDbEntity
  8
1
  6
Continuous
 62
     7
100
AcDbLine
 10
6189.795860968442
 20
9978.653869169113
 30
0.0
 11
6190.539423677074
 21
9971.602177438279
 31
0.0
  0
LINE
  5
8D
102
{ACAD_REACTORS
330
5E
102
}
330
21
100
AcDbEntity
  8
1
  6
Continuous
 62
     7
100
AcDbLine
 10
6190.539423677074
 20
9971.602177438279
 30
0.0
 11
6149.474326749782
 21
9960.959389968939
 31
0.0
  0
LINE
  5
8E
102
{ACAD_REACTORS
330
5E
102
}
330
21
100
AcDbEntity
  8
1
  6
Continuous
 62
     7
100
AcDbLine
 10
6149.869183451006
 20
9961.353567282619
 30
0.0
 11
6149.191206036711
 21
9968.121676195876
 31
0.0
  0
LINE
  5
8F
102
{ACAD_REACTORS
330
5E
102
}
330
21
100
AcDbEntity
  8
1
  6
Continuous
 62
     7
100
AcDbLine
 10
6130.520590869497
 20
9956.517727002607
 30
0.0
 11
6129.017787298123
 21
9960.69333083831
 31
0.0
  0
LINE
  5
90
102
{ACAD_REACTORS
330
5E
102
}
330
21
100
AcDbEntity
  8
1
  6
Continuous
 62
     7
100
AcDbLine
 10
6095.559320448622
 20
9939.181224780604
 30
0.0
 11
6095.013752687863
 21
9944.468388533817
 31
0.0
  0
ARC
  5
91
102
{ACAD_REACTORS
330
5E
102
}
330
21
100
AcDbEntity
  8
1
  6
Continuous
 62
     7
100
AcDbCircle
 10
5950.993348461061
 20
9953.602806086152
 30
0.0
 40
103.8978256159821
100
AcDbArc
 50
303.3033320966023
 51
331.1359790097919
  0
LINE
  5
92
102
{ACAD_REACTORS
330
5E
102
}
330
21
100
AcDbEntity
  8
1
  6
Continuous
 62
     7
100
AcDbLine
 10
6042.140549217798
 20
9903.447945018717
 30
0.0
 11
6040.736281974164
 21
9906.738104574689
 31
0.0
  0
LINE
  5
93
102
{ACAD_REACTORS
330
5E
102
}
330
21
100
AcDbEntity
  8
1
  6
Continuous
 62
     7
100
AcDbLine
 10
6008.138999945731
 20
9866.767556106902
 30
0.0
 11
6005.271379676955
 21
9870.965090943002
 31
0.0
  0
LINE
  5
94
102
{ACAD_REACTORS
330
5E
102
}
330
21
100
AcDbEntity
  8
1
  6
Continuous
 62
     7
100
AcDbLine
 10
6389.967638115123
 20
9317.864784767001
 30
0.0
 11
6389.967638115123
 21
9192.194049993553
 31
0.0
  0
LINE
  5
95
102
{ACAD_REACTORS
330
5E
102
}
330
21
100
AcDbEntity
  8
1
  6
Continuous
 62
     7
100
AcDbLine
 10
6383.144514317973
 20
9317.939818489717
 30
0.0
 11
6383.144514317973
 21
9191.642956763692
 31
0.0
  0
LINE
  5
96
102
{ACAD_REACTORS
330
5E
102
}
330
21
100
AcDbEntity
  8
1
  6
Continuous
 62
     7
100
AcDbLine
 10
6113.631124330514
 20
9317.684350846006
 30
0.0
 11
6113.631124330514
 21
9112.289482462978
 31
0.0
  0
LWPOLYLINE
  5
97
102
{ACAD_REACTORS
330
5E
102
}
330
21
100
AcDbEntity
  8
1
  6
Continuous
 62
     7
100
AcDbPolyline
 90
        6
 70
     0
 43
0.0
 10
6370.1446038943
 20
9956.243318099176
 10
6375.609493257107
 20
9950.881279130136
 10
6382.57426850817
 20
9946.012881963309
 10
6390.280078545519
 20
9942.425786298782
 10
6398.492786230502
 20
9940.228984223169
 10
6405.372463523169
 20
9939.515114200755
  0
LWPOLYLINE
  5
98
102
{ACAD_REACTORS
330
5E
102
}
330
21
100
AcDbEntity
  8
1
  6
Continuous
 62
     7
100
AcDbPolyline
 90
       10
 70
     0
 43
0.0
 10
6095.559320448622
 20
9939.181224780604
 10
6095.617087791119
 20
9938.895215280348
 10
6096.433159443569
 20
9939.028654743207
 10
6098.505335746247
 20
9939.623594152582
 10
6108.445160102201
 20
9942.282379490372
 10
6117.771487207654
 20
9946.623834491697
 10
6122.084645677051
 20
9949.423878788529
 10
6126.200941332859
 20
9952.516046243225
 10
6128.504271064636
 20
9954.37701452591
 10
6130.520590869497
 20
9956.517727002607
  0
LWPOLYLINE
  5
99
102
{ACAD_REACTORS
330
5E
102
}
330
21
100
AcDbEntity
  8
1
  6
Continuous
 62
     7
100
AcDbPolyline
 90
        2
 70
     0
 43
0.0
 10
6569.937221877636
 20
9664.759131394559
 42
0.1860964174926291
 10
6487.085937314721
 20
9879.283338123794
  0
LINE
  5
9A
102
{ACAD_REACTORS
330
5E
102
}
330
21
100
AcDbEntity
  8
1
  6
Continuous
 62
     7
100
AcDbLine
 10
6495.535630638556
 20
9965.148488438181
 30
0.0
 11
6455.415662711324
 21
9965.148488438181
 31
0.0
  0
LINE
  5
9B
102
{ACAD_REACTORS
330
5E
102
}
330
21
100
AcDbEntity
  8
1
  6
Continuous
 62
     7
100
AcDbLine
 10
6495.535630638556
 20
9974.956881369919
 30
0.0
 11
6455.415662711324
 21
9974.956881369919
 31
0.0
  0
LINE
  5
9C
102
{ACAD_REACTORS
330
5E
102
}
330
21
100
AcDbEntity
  8
1
  6
Continuous
 62
     7
100
AcDbLine
 10
6407.107946227518
 20
9974.956881369919
 30
0.0
 11
6366.169203444631
 21
9974.956881369919
 31
0.0
  0
LINE
  5
9D
102
{ACAD_REACTORS
330
5E
102
}
330
21
100
AcDbEntity
  8
1
  6
Continuous
 62
     7
100
AcDbLine
 10
6407.107946227518
 20
9965.148488438181
 30
0.0
 11
6366.169203444631
 21
9965.148488438181
 31
0.0
  0
LINE
  5
9E
102
{ACAD_REACTORS
330
5E
102
}
330
21
100
AcDbEntity
  8
1
  6
Continuous
 62
     7
100
AcDbLine
 10
6133.194132655926
 20
9974.956881369919
 30
0.0
 11
6092.937702252752
 21
9974.956881369919
 31
0.0
  0
LINE
  5
9F
102
{ACAD_REACTORS
330
5E
102
}
330
21
100
AcDbEntity
  8
1
  6
Continuous
 62
     7
100
AcDbLine
 10
6133.194132655926
 20
9965.148488438181
 30
0.0
 11
6092.937702252752
 21
9965.148488438181
 31
0.0
  0
LINE
  5
A0
102
{ACAD_REACTORS
330
5E
102
}
330
21
100
AcDbEntity
  8
1
  6
Continuous
 62
     7
100
AcDbLine
 10
6045.858148052431
 20
9965.148488438181
 30
0.0
 11
6004.919405269543
 21
9965.148488438181
 31
0.0
  0
LINE
  5
A1
102
{ACAD_REACTORS
330
5E
102
}
330
21
100
AcDbEntity
  8
1
  6
Continuous
 62
     7
100
AcDbLine
 10
6045.858148052431
 20
9974.956881369919
 30
0.0
 11
6004.919405269543
 21
9974.956881369919
 31
0.0
  0
ARC
  5
A2
102
{ACAD_REACTORS
330
5E
102
}
330
21
100
AcDbEntity
  8
1
  6
Continuous
 62
     7
100
AcDbCircle
 10
6393.199307431046
 20
9109.950988451855
 30
0.0
 40
82.30631172987775
100
AcDbArc
 50
178.3718882842426
 51
186.250240695376
  0
LINE
  5
A3
102
{ACAD_REACTORS
330
5E
102
}
330
21
100
AcDbEntity
  8
1
  6
Continuous
 62
     7
100
AcDbLine
 10
6310.784420704964
 20
9112.289482462976
 30
0.0
 11
5930.038734550393
 21
9112.289482462978
 31
0.0
  0
LINE
  5
A4
102
{ACAD_REACTORS
330
5E
102
}
330
21
100
AcDbEntity
  8
1
  6
Continuous
 62
     7
100
AcDbLine
 10
6311.241217734936
 20
9100.990213805618
 30
0.0
 11
5930.038734550393
 21
9100.990213805619
 31
0.0
  0
ARC
  5
A5
102
{ACAD_REACTORS
330
5E
102
}
330
21
100
AcDbEntity
  8
1
  6
Continuous
 62
     7
100
AcDbCircle
 10
6393.199307431046
 20
9109.950988451855
 30
0.0
 40
82.30631172987775
100
AcDbArc
 50
186.250240695376
 51
353.749759304624
  0
ARC
  5
A6
102
{ACAD_REACTORS
330
5E
102
}
330
21
100
AcDbEntity
  8
1
  6
Continuous
 62
     7
100
AcDbCircle
 10
6393.199307431046
 20
9109.950988451855
 30
0.0
 40
82.30631172987775
100
AcDbArc
 50
1.628111715757393
 51
178.3718882842426
  0
ARC
  5
A7
102
{ACAD_REACTORS
330
5E
102
}
330
21
100
AcDbEntity
  8
1
  6
Continuous
 62
     7
100
AcDbCircle
 10
6393.199307431046
 20
9109.950988451855
 30
0.0
 40
82.30631172987775
100
AcDbArc
 50
353.749759304624
 51
1.628111715757398
  0
LINE
  5
A8
102
{ACAD_REACTORS
330
5E
102
}
330
21
100
AcDbEntity
  8
1
  6
Continuous
 62
     7
100
AcDbLine
 10
6324.036786956316
 20
8893.945457683228
 30
0.0
 11
6324.036786956316
 21
8844.368813397272
 31
0.0
  0
LINE
  5
A9
102
{ACAD_REACTORS
330
5E
102
}
330
21
100
AcDbEntity
  8
1
  6
Continuous
 62
     7
100
AcDbLine
 10
6175.452210285798
 20
8844.368813397272
 30
0.0
 11
6175.452210285798
 21
8893.94545768323
 31
0.0
  0
LINE
  5
AA
102
{ACAD_REACTORS
330
5E
102
}
330
21
100
AcDbEntity
  8
1
  6
Continuous
 62
     7
100
AcDbLine
 10
6301.924325233672
 20
8892.65598994619
 30
0.0
 11
6301.924325233672
 21
8861.43714670281
 31
0.0
  0
LINE
  5
AB
102
{ACAD_REACTORS
330
5E
102
}
330
21
100
AcDbEntity
  8
1
  6
Continuous
 62
     7
100
AcDbLine
 10
6301.924325233672
 20
8861.43714670281
 30
0.0
 11
6198.155984152048
 21
8861.43714670281
 31
0.0
  0
LINE
  5
AC
102
{ACAD_REACTORS
330
5E
102
}
330
21
100
AcDbEntity
  8
1
  6
Continuous
 62
     7
100
AcDbLine
 10
6198.155984152048
 20
8861.43714670281
 30
0.0
 11
6198.155984152048
 21
8892.655989946192
 31
0.0
  0
LINE
  5
AD
102
{ACAD_REACTORS
330
5E
102
}
330
21
100
AcDbEntity
  8
1
  6
Continuous
 62
     7
100
AcDbLine
 10
6569.937221877636
 20
9664.759131394559
 30
0.0
 11
6569.937221877633
 21
9002.968597450346
 31
0.0
  0
LINE
  5
AE
102
{ACAD_REACTORS
330
5E
102
}
330
21
100
AcDbEntity
  8
1
  6
Continuous
 62
     7
100
AcDbLine
 10
5930.038734550393
 20
9002.968597450346
 30
0.0
 11
5930.038734550394
 21
9664.759131394559
 31
0.0
  0
LINE
  5
AF
102
{ACAD_REACTORS
330
5E
102
}
330
21
100
AcDbEntity
  8
1
  6
Continuous
 62
     7
100
AcDbLine
 10
6487.085937314721
 20
9879.283338123794
 30
0.0
 11
6487.085937314721
 21
9870.099776471116
 31
0.0
  0
LINE
  5
B0
102
{ACAD_REACTORS
330
5E
102
}
330
21
100
AcDbEntity
  8
1
  6
Continuous
 62
     7
100
AcDbLine
 10
6462.407393488226
 20
9903.681800236375
 30
0.0
 11
6462.407393488226
 21
9894.488962528908
 31
0.0
  0
LWPOLYLINE
  5
B1
102
{ACAD_REACTORS
330
5E
102
}
330
21
100
AcDbEntity
  8
1
  6
Continuous
 62
     7
100
AcDbPolyline
 90
        2
 70
     0
 43
0.0
 10
6462.407393488226
 20
9903.681800236375
 42
0.0599752341040261
 10
6399.533117884955
 20
9947.221031333711
  0
LINE
  5
B2
102
{ACAD_REACTORS
330
5E
102
}
330
21
100
AcDbEntity
  8
1
  6
Continuous
 62
     7
100
AcDbLine
 10
6399.533117884955
 20
9947.221031333711
 30
0.0
 11
6399.533117884955
 21
9939.950707822072
 31
0.0
  0
LWPOLYLINE
  5
B3
102
{ACAD_REACTORS
330
5E
102
}
330
21
100
AcDbEntity
  8
1
  6
Continuous
 62
     7
100
AcDbPolyline
 90
        2
 70
     0
 43
0.0
 10
6359.038506440249
 20
9965.148488438181
 42
0.1892452246470389
 10
6125.174961960105
 20
9959.100870422378
  0
LINE
  5
B4
102
{ACAD_REACTORS
330
5E
102
}
330
21
100
AcDbEntity
  8
1
  6
Continuous
 62
     7
100
AcDbLine
 10
6125.174961960105
 20
9959.100870422378
 30
0.0
 11
6125.174961960105
 21
9951.74532900353
 31
0.0
  0
LWPOLYLINE
  5
B5
102
{ACAD_REACTORS
330
5E
102
}
330
21
100
AcDbEntity
  8
1
  6
Continuous
 62
     7
100
AcDbPolyline
 90
        2
 70
     0
 43
0.0
 10
6100.299359314405
 20
9947.319429359529
 42
0.0602479299831427
 10
6037.136215464357
 20
9903.590936872117
  0
LINE
  5
B6
102
{ACAD_REACTORS
330
5E
102
}
330
21
100
AcDbEntity
  8
1
  6
Continuous
 62
     7
100
AcDbLine
 10
6100.299359314405
 20
9947.319429359529
 30
0.0
 11
6100.299359314405
 21
9940.103474217648
 31
0.0
  0
LINE
  5
B7
102
{ACAD_REACTORS
330
5E
102
}
330
21
100
AcDbEntity
  8
1
  6
Continuous
 62
     7
100
AcDbLine
 10
6037.136215464357
 20
9903.590936872117
 30
0.0
 11
6037.136215464357
 21
9895.296045743847
 31
0.0
  0
LWPOLYLINE
  5
B8
102
{ACAD_REACTORS
330
5E
102
}
330
21
100
AcDbEntity
  8
1
  6
Continuous
 62
     7
100
AcDbPolyline
 90
        2
 70
     0
 43
0.0
 10
6012.43366332846
 20
9879.143897189585
 42
0.185944185278781
 10
5929.708816185276
 20
9664.759131394555
  0
LINE
  5
B9
102
{ACAD_REACTORS
330
5E
102
}
330
21
100
AcDbEntity
  8
1
  6
Continuous
 62
     7
100
AcDbLine
 10
6012.43366332846
 20
9879.143897189585
 30
0.0
 11
6012.43366332846
 21
9869.740866720661
 31
0.0
  0
LWPOLYLINE
  5
BA
102
{ACAD_REACTORS
330
5E
102
}
330
21
100
AcDbEntity
  8
1
  6
Continuous
 62
     7
100
AcDbPolyline
 90
        2
 70
     0
 43
0.0
 10
6374.580368015944
 20
9959.054722695313
 42
0.0130426044378543
 10
6359.038506440249
 20
9965.148488438181
  0
LINE
  5
BB
102
{ACAD_REACTORS
330
5E
102
}
330
21
100
AcDbEntity
  8
1
  6
Continuous
 62
     7
100
AcDbLine
 10
6374.580368015944
 20
9959.054722695313
 30
0.0
 11
6374.580368015944
 21
9951.89103601281
 31
0.0
  0
ARC
  5
BC
102
{ACAD_REACTORS
330
5E
102
}
330
21
100
AcDbEntity
  8
1
  6
Continuous
 62
     7
100
AcDbCircle
 10
6386.848112423335
 20
9344.367044627992
 30
0.0
 40
26.68459779348411
100
AcDbArc
 50
189.6787137142028
 51
39.1583346849915
  0
ARC
  5
BD
102
{ACAD_REACTORS
330
5E
102
}
330
21
100
AcDbEntity
  8
1
  6
Continuous
 62
     7
100
AcDbCircle
 10
6113.311808645208
 20
9344.367044627992
 30
0.0
 40
26.68459779348411
100
AcDbArc
 50
140.6147694720578
 51
350.4803852346365
  0
ARC
  5
BE
102
{ACAD_REACTORS
330
5E
102
}
330
21
100
AcDbEntity
  8
1
  6
Continuous
 62
     7
100
AcDbCircle
 10
6113.311808645208
 20
9344.367044627992
 30
0.0
 40
26.68459779348411
100
AcDbArc
 50
350.4803852346365
 51
140.6147694720579
  0
ARC
  5
BF
102
{ACAD_REACTORS
330
5E
102
}
330
21
100
AcDbEntity
  8
1
  6
Continuous
 62
     7
100
AcDbCircle
 10
6250.187387804144
 20
9644.857306566251
 30
0.0
 40
324.2488200161519
100
AcDbArc
 50
250.108403901634
 51
289.8536177360606
  0
ARC
  5
C0
102
{ACAD_REACTORS
330
5E
102
}
330
21
100
AcDbEntity
  8
1
  6
Continuous
 62
     7
100
AcDbCircle
 10
6386.848112423335
 20
9344.367044627992
 30
0.0
 40
26.68459779348411
100
AcDbArc
 50
39.1583346849915
 51
189.6787137142028
  0
ARC
  5
C1
102
{ACAD_REACTORS
330
5E
102
}
330
21
100
AcDbEntity
  8
1
  6
Continuous
 62
     7
100
AcDbCircle
 10
6250.187387804144
 20
9644.857306566251
 30
0.0
 40
324.2488200161519
100
AcDbArc
 50
298.9834306631327
 51
312.5827006864014
  0
LINE
  5
C3
102
{ACAD_REACTORS
330
C2
102
}
330
21
100
AcDbEntity
  8
1
  6
Continuous
 62
     7
100
AcDbLine
 10
5957.65424076174
 20
7889.400913507746
 30
0.0
 11
6541.1344651862
 21
7889.400913507746
 31
0.0
  0
LINE
  5
C4
102
{ACAD_REACTORS
330
C2
102
}
330
21
100
AcDbEntity
  8
1
  6
Continuous
 62
     7
100
AcDbLine
 10
6175.354312207538
 20
7643.031919193346
 30
0.0
 11
6323.811062111507
 21
7643.031919193346
 31
0.0
  0
LINE
  5
C5
102
{ACAD_REACTORS
330
C2
102
}
330
21
100
AcDbEntity
  8
1
  6
Continuous
 62
     7
100
AcDbLine
 10
6197.930259307239
 20
7580.781798892982
 30
0.0
 11
6301.698600388863
 21
7580.781798892982
 31
0.0
  0
LINE
  5
C6
102
{ACAD_REACTORS
330
C2
102
}
330
21
100
AcDbEntity
  8
1
  6
Continuous
 62
     7
100
AcDbLine
 10
6175.354312207538
 20
7551.192610617289
 30
0.0
 11
6323.811062111507
 21
7551.192610617289
 31
0.0
  0
LINE
  5
C7
102
{ACAD_REACTORS
330
C2
102
}
330
21
100
AcDbEntity
  8
1
  6
Continuous
 62
     7
100
AcDbLine
 10
5930.052707406442
 20
6453.874028891696
 30
0.0
 11
6569.485772188016
 21
6453.874028891696
 31
0.0
  0
LINE
  5
C8
102
{ACAD_REACTORS
330
C2
102
}
330
21
100
AcDbEntity
  8
1
  6
Continuous
 62
     7
100
AcDbLine
 10
5930.052707406442
 20
6429.400913507746
 30
0.0
 11
6569.485772188016
 21
6429.400913507746
 31
0.0
  0
LINE
  5
C9
102
{ACAD_REACTORS
330
C2
102
}
330
21
100
AcDbEntity
  8
1
  6
Continuous
 62
     7
100
AcDbLine
 10
5957.65424076174
 20
7889.400913507746
 30
0.0
 11
5957.654240761739
 21
6453.874028891696
 31
0.0
  0
LINE
  5
CA
102
{ACAD_REACTORS
330
C2
102
}
330
21
100
AcDbEntity
  8
1
  6
Continuous
 62
     7
100
AcDbLine
 10
6175.354312207538
 20
7679.70746479879
 30
0.0
 11
6175.354312207538
 21
7580.781798892982
 31
0.0
  0
LINE
  5
CB
102
{ACAD_REACTORS
330
C2
102
}
330
21
100
AcDbEntity
  8
1
  6
Continuous
 62
     7
100
AcDbLine
 10
6197.930259307239
 20
7623.60845076323
 30
0.0
 11
6197.930259307239
 21
7580.781798892982
 31
0.0
  0
LINE
  5
CC
102
{ACAD_REACTORS
330
C2
102
}
330
21
100
AcDbEntity
  8
1
  6
Continuous
 62
     7
100
AcDbLine
 10
6301.698600388863
 20
7623.60845076323
 30
0.0
 11
6301.698600388863
 21
7580.781798892982
 31
0.0
  0
LINE
  5
CD
102
{ACAD_REACTORS
330
C2
102
}
330
21
100
AcDbEntity
  8
1
  6
Continuous
 62
     7
100
AcDbLine
 10
6323.811062111507
 20
7679.618606031621
 30
0.0
 11
6323.811062111507
 21
7580.781798892982
 31
0.0
  0
LINE
  5
CE
102
{ACAD_REACTORS
330
C2
102
}
330
21
100
AcDbEntity
  8
1
  6
Continuous
 62
     7
100
AcDbLine
 10
6541.1344651862
 20
7889.400913507746
 30
0.0
 11
6541.1344651862
 21
6453.874028891696
 31
0.0
  0
LWPOLYLINE
  5
CF
102
{ACAD_REACTORS
330
C2
102
}
330
21
100
AcDbEntity
  8
1
  6
Continuous
 62
     7
100
AcDbPolyline
 90
        5
 70
     0
 43
0.0
 10
6318.905213668923
 20
7972.875811626662
 10
6461.822851000693
 20
7972.875811626662
 10
6461.822851000693
 20
7962.78750781501
 10
6318.905213668923
 20
7962.78750781501
 10
6318.905213668923
 20
7972.875811626662
  0
LINE
  5
D0
102
{ACAD_REACTORS
330
C2
102
}
330
21
100
AcDbEntity
  8
1
  6
Continuous
 62
     7
100
AcDbLine
 10
6324.790057559055
 20
7979.400913507745
 30
0.0
 11
6457.619391079169
 21
7979.400913507745
 31
0.0
  0
LINE
  5
D1
102
{ACAD_REACTORS
330
C2
102
}
330
21
100
AcDbEntity
  8
1
  6
Continuous
 62
     7
100
AcDbLine
 10
6457.619391079169
 20
7979.400913507745
 30
0.0
 11
6457.619391079169
 21
7972.875811626662
 31
0.0
  0
LINE
  5
D2
102
{ACAD_REACTORS
330
C2
102
}
330
21
100
AcDbEntity
  8
1
  6
Continuous
 62
     7
100
AcDbLine
 10
6457.619391079169
 20
7972.875811626662
 30
0.0
 11
6324.790057559055
 21
7972.875811626662
 31
0.0
  0
LINE
  5
D3
102
{ACAD_REACTORS
330
C2
102
}
330
21
100
AcDbEntity
  8
1
  6
Continuous
 62
     7
100
AcDbLine
 10
6324.790057559055
 20
7972.875811626662
 30
0.0
 11
6324.790057559055
 21
7979.400913507745
 31
0.0
  0
LINE
  5
D4
102
{ACAD_REACTORS
330
C2
102
}
330
21
100
AcDbEntity
  8
1
  6
Continuous
 62
     7
100
AcDbLine
 10
6327.312133511967
 20
7889.400913507746
 30
0.0
 11
6327.312133511967
 21
7925.797060505608
 31
0.0
  0
LINE
  5
D5
102
{ACAD_REACTORS
330
C2
102
}
330
21
100
AcDbEntity
  8
1
  6
Continuous
 62
     7
100
AcDbLine
 10
6455.93800711056
 20
7925.797060505608
 30
0.0
 11
6455.93800711056
 21
7889.400913507746
 31
0.0
  0
LINE
  5
D6
102
{ACAD_REACTORS
330
C2
102
}
330
21
100
AcDbEntity
  8
1
  6
Continuous
 62
     7
100
AcDbLine
 10
6456.778699094866
 20
7962.78750781501
 30
0.0
 11
6456.778699094866
 21
7925.797060505608
 31
0.0
  0
LINE
  5
D7
102
{ACAD_REACTORS
330
C2
102
}
330
21
100
AcDbEntity
  8
1
  6
Continuous
 62
     7
100
AcDbLine
 10
6456.778699094866
 20
7925.797060505608
 30
0.0
 11
6324.790057559055
 21
7925.797060505608
 31
0.0
  0
LINE
  5
D8
102
{ACAD_REACTORS
330
C2
102
}
330
21
100
AcDbEntity
  8
1
  6
Continuous
 62
     7
100
AcDbLine
 10
6324.790057559055
 20
7925.797060505608
 30
0.0
 11
6324.790057559055
 21
7962.78750781501
 31
0.0
  0
ARC
  5
D9
102
{ACAD_REACTORS
330
C2
102
}
330
21
100
AcDbEntity
  8
1
  6
Continuous
 62
     7
100
AcDbCircle
 10
6058.964465753398
 20
7809.210278042115
 30
0.0
 40
129.2064228443837
100
AcDbArc
 50
141.6371362074954
 51
176.1297229336669
  0
ARC
  5
DA
102
{ACAD_REACTORS
330
C2
102
}
330
21
100
AcDbEntity
  8
1
  6
Continuous
 62
     7
100
AcDbCircle
 10
6447.648720584354
 20
7810.957856132209
 30
0.0
 40
122.036460511534
100
AcDbArc
 50
3.275851911138849
 51
39.99971355570816
  0
LINE
  5
DB
102
{ACAD_REACTORS
330
C2
102
}
330
21
100
AcDbEntity
  8
1
  6
Continuous
 62
     7
100
AcDbLine
 10
6569.485772188016
 20
7817.931416966496
 30
0.0
 11
6569.485772188016
 21
6429.400913507746
 31
0.0
  0
LINE
  5
DC
102
{ACAD_REACTORS
330
C2
102
}
330
21
100
AcDbEntity
  8
1
  6
Continuous
 62
     7
100
AcDbLine
 10
5930.052707406442
 20
7817.931416966479
 30
0.0
 11
5930.052707406442
 21
6429.400913507746
 31
0.0
  0
ARC
  5
DD
102
{ACAD_REACTORS
330
C2
102
}
330
21
100
AcDbEntity
  8
1
  6
Continuous
 62
     7
100
AcDbCircle
 10
6249.39435297397
 20
8698.935921670939
 30
0.0
 40
928.052385581291
100
AcDbArc
 50
249.9366079096826
 51
290.1152119731467
  0
ELLIPSE
  5
DE
102
{ACAD_REACTORS
330
C2
102
}
330
21
100
AcDbEntity
  8
1
  6
Continuous
 62
     7
100
AcDbEllipse
 10
6294.828093787566
 20
7573.200250116878
 30
0.0
 11
-7.818182428023967
 21
0.2358539448475907
 31
0.0
210
0.0
220
0.0
230
1.0
 40
0.666742839106284
 41
6.283060143048957
 42
12.56624545022854
  0
ELLIPSE
  5
DF
102
{ACAD_REACTORS
330
C2
102
}
330
21
100
AcDbEntity
  8
1
  6
Continuous
 62
     7
100
AcDbEllipse
 10
6204.326937867063
 20
7573.200250116878
 30
0.0
 11
-7.818182428023967
 21
0.2358539448475907
 31
0.0
210
0.0
220
0.0
230
1.0
 40
0.666742839106284
 41
6.283060143048957
 42
12.56624545022854
  0
LINE
  5
E0
102
{ACAD_REACTORS
330
C2
102
}
330
21
100
AcDbEntity
  8
1
  6
Continuous
 62
     7
100
AcDbLine
 10
6175.354312207538
 20
7580.781798892982
 30
0.0
 11
6175.354312207538
 21
7551.192610617289
 31
0.0
  0
LINE
  5
E1
102
{ACAD_REACTORS
330
C2
102
}
330
21
100
AcDbEntity
  8
1
  6
Continuous
 62
     7
100
AcDbLine
 10
6323.811062111507
 20
7580.781798892982
 30
0.0
 11
6323.811062111507
 21
7551.192610617289
 31
0.0
  0
ARC
  5
E2
102
{ACAD_REACTORS
330
C2
102
}
330
21
100
AcDbEntity
  8
1
  6
Continuous
 62
     7
100
AcDbCircle
 10
6250.462879103135
 20
7843.01380116961
 30
0.0
 40
292.6183824303863
100
AcDbArc
 50
255.1269898912029
 51
284.5166639040643
  0
LINE
  5
E3
102
{ACAD_REACTORS
330
C2
102
}
330
21
100
AcDbEntity
  8
1
  6
Continuous
 62
     7
100
AcDbLine
 10
6197.930259307239
 20
7623.60845076323
 30
0.0
 11
6301.698600388863
 21
7623.60845076323
 31
0.0
  0
ARC
  5
E4
102
{ACAD_REACTORS
330
C2
102
}
330
21
100
AcDbEntity
  8
1
  6
Continuous
 62
     7
100
AcDbCircle
 10
6249.395461155855
 20
7366.863692278747
 30
0.0
 40
321.48610816357
100
AcDbArc
 50
76.61614581050071
 51
103.3152654358489
  0
LINE
  5
E5
102
{ACAD_REACTORS
330
C2
102
}
330
21
100
AcDbEntity
  8
1
  6
Continuous
 62
     7
100
AcDbLine
 10
5983.773734882288
 20
6454.232679480774
 30
0.0
 11
5983.773734882288
 21
6441.243699347402
 31
0.0
  0
LINE
  5
E6
102
{ACAD_REACTORS
330
C2
102
}
330
21
100
AcDbEntity
  8
1
  6
Continuous
 62
     7
100
AcDbLine
 10
5994.86415337079
 20
6454.232679480774
 30
0.0
 11
5994.86415337079
 21
6441.243699347402
 31
0.0
  0
LWPOLYLINE
  5
E7
102
{ACAD_REACTORS
330
C2
102
}
330
21
100
AcDbEntity
  8
1
  6
Continuous
 62
     7
100
AcDbPolyline
 90
        4
 70
     0
 43
0.0
 10
5976.380122556623
 20
6429.759564096823
 10
5976.380122556623
 20
6441.243699347402
 10
6002.785880862575
 20
6441.243699347402
 10
6002.785880862575
 20
6429.759564096823
  0
LINE
  5
E8
102
{ACAD_REACTORS
330
C2
102
}
330
21
100
AcDbEntity
  8
1
  6
Continuous
 62
     7
100
AcDbLine
 10
5976.380122556623
 20
6429.759564096823
 30
0.0
 11
6002.785880862575
 21
6429.759564096823
 31
0.0
  0
HATCH
  5
E9
102
{ACAD_REACTORS
330
C2
102
}
330
21
100
AcDbEntity
  8
1
  6
Continuous
 62
     7
100
AcDbHatch
 10
0.0
 20
0.0
 30
0.0
210
0.0
220
0.0
230
1.0
  2
SOLID
 70
     1
 71
     0
 91
        1
 92
        3
 72
     0
 73
     1
 93
        4
 10
6002.785880862575
 20
6429.759564096823
 10
6002.785880862575
 20
6441.243699347402
 10
5976.380122556623
 20
6441.243699347402
 10
5976.380122556623
 20
6429.759564096823
 97
        0
 75
     0
 76
     1
 98
        1
 10
0.0
 20
0.0
  0
LINE
  5
EA
102
{ACAD_REACTORS
330
C2
102
}
330
21
100
AcDbEntity
  8
1
  6
Continuous
 62
     7
100
AcDbLine
 10
6501.643361102406
 20
6453.522003638799
 30
0.0
 11
6501.643361102406
 21
6440.533023505427
 31
0.0
  0
LINE
  5
EB
102
{ACAD_REACTORS
330
C2
102
}
330
21
100
AcDbEntity
  8
1
  6
Continuous
 62
     7
100
AcDbLine
 10
6512.733779590906
 20
6453.522003638799
 30
0.0
 11
6512.733779590906
 21
6440.533023505427
 31
0.0
  0
LWPOLYLINE
  5
EC
102
{ACAD_REACTORS
330
C2
102
}
330
21
100
AcDbEntity
  8
1
  6
Continuous
 62
     7
100
AcDbPolyline
 90
        4
 70
     0
 43
0.0
 10
6494.249748776738
 20
6429.048888254846
 10
6494.249748776738
 20
6440.533023505427
 10
6520.655507082691
 20
6440.533023505427
 10
6520.655507082691
 20
6429.048888254846
  0
LINE
  5
ED
102
{ACAD_REACTORS
330
C2
102
}
330
21
100
AcDbEntity
  8
1
  6
Continuous
 62
     7
100
AcDbLine
 10
6494.249748776738
 20
6429.048888254846
 30
0.0
 11
6520.655507082691
 21
6429.048888254846
 31
0.0
  0
HATCH
  5
EE
102
{ACAD_REACTORS
330
C2
102
}
330
21
100
AcDbEntity
  8
1
  6
Continuous
 62
     7
100
AcDbHatch
 10
0.0
 20
0.0
 30
0.0
210
0.0
220
0.0
230
1.0
  2
SOLID
 70
     1
 71
     0
 91
        1
 92
        3
 72
     0
 73
     1
 93
        4
 10
6520.655507082691
 20
6429.048888254846
 10
6520.655507082691
 20
6440.533023505427
 10
6494.249748776738
 20
6440.533023505427
 10
6494.249748776738
 20
6429.048888254846
 97
        0
 75
     0
 76
     1
 98
        1
 10
0.0
 20
0.0
  0
HATCH
  5
EF
102
{ACAD_REACTORS
330
C2
102
}
330
21
100
AcDbEntity
  8
1
  6
Continuous
 62
   240
100
AcDbHatch
 10
0.0
 20
0.0
 30
0.0
210
0.0
220
0.0
230
1.0
  2
SOLID
 70
     1
 71
     0
 91
        1
 92
        3
 72
     1
 73
     1
 93
        4
 10
6314.219068775521
 20
6898.789329398738
 42
1.66512138939826
 10
6529.327848386468
 20
6645.521118061378
 42
0.0
 10
6495.138754399426
 20
6659.037736614397
 42
-1.696895154841664
 10
6314.219068775521
 20
6877.257717744434
 42
0.0
 97
        0
 75
     0
 76
     1
 98
        1
 10
0.0
 20
0.0
  0
TEXT
  5
F1
102
{ACAD_REACTORS
330
C2
102
}
330
21
100
AcDbEntity
  8
1
  6
Continuous
 62
     9
100
AcDbText
 10
6468.925214544942
 20
6672.086994306718
 30
0.0
 40
94.77287683859387
  1
SOLVIS
 50
90.00000000000005
 41
1.396344772333109
  7
FRANKLINGOTHICDEMI
100
AcDbText
  0
ARC
  5
F3
102
{ACAD_REACTORS
330
C2
102
}
330
21
100
AcDbEntity
  8
1
  6
Continuous
 62
     9
100
AcDbCircle
 10
6354.368367246475
 20
6714.905927184019
 30
0.0
 40
188.2154929270164
100
AcDbArc
 50
102.316725272078
 51
338.367889219643
  0
ARC
  5
F4
102
{ACAD_REACTORS
330
C2
102
}
330
21
100
AcDbEntity
  8
1
  6
Continuous
 62
     9
100
AcDbCircle
 10
6344.254696018882
 20
6718.051810077188
 30
0.0
 40
162.0143818926602
100
AcDbArc
 50
100.6837922700772
 51
338.6384391280082
  0
LINE
  5
F5
102
{ACAD_REACTORS
330
C2
102
}
330
21
100
AcDbEntity
  8
1
  6
Continuous
 62
     9
100
AcDbLine
 10
6314.219068775521
 20
6877.257717744434
 30
0.0
 11
6314.219068775521
 21
6898.789329398738
 31
0.0
  0
LINE
  5
F6
102
{ACAD_REACTORS
330
C2
102
}
330
21
100
AcDbEntity
  8
1
  6
Continuous
 62
     9
100
AcDbLine
 10
6495.138754399426
 20
6659.037736614397
 30
0.0
 11
6529.327848386468
 21
6645.521118061378
 31
0.0
  0
CIRCLE
  5
F7
102
{ACAD_REACTORS
330
C2
102
}
330
21
100
AcDbEntity
  8
1
  6
Continuous
 62
     7
100
AcDbCircle
 10
6249.814031043189
 20
7509.999999999998
 30
0.0
 40
11.72088181704811
  0
LINE
  5
F9
102
{ACAD_REACTORS
330
F8
102
}
330
21
100
AcDbEntity
  8
1
  6
Continuous
 62
     7
100
AcDbLine
 10
4068.545492058332
 20
6453.874028891696
 30
0.0
 11
5092.703358158146
 21
6453.874028891696
 31
0.0
  0
LINE
  5
FA
102
{ACAD_REACTORS
330
F8
102
}
330
21
100
AcDbEntity
  8
1
  6
Continuous
 62
     7
100
AcDbLine
 10
4012.305106628788
 20
6483.464789387078
 30
0.0
 11
4012.305106628788
 21
6429.400913507746
 31
0.0
  0
LINE
  5
FB
102
{ACAD_REACTORS
330
F8
102
}
330
21
100
AcDbEntity
  8
1
  6
Continuous
 62
     7
100
AcDbLine
 10
4548.465874933024
 20
6453.874028891696
 30
0.0
 11
4548.465874933024
 21
6429.400913507746
 31
0.0
  0
LINE
  5
FC
102
{ACAD_REACTORS
330
F8
102
}
330
21
100
AcDbEntity
  8
1
  6
Continuous
 62
     7
100
AcDbLine
 10
4624.334600359218
 20
6453.874028891696
 30
0.0
 11
4624.334600359218
 21
6429.400913507746
 31
0.0
  0
LINE
  5
FD
102
{ACAD_REACTORS
330
F8
102
}
330
21
100
AcDbEntity
  8
1
  6
Continuous
 62
     7
100
AcDbLine
 10
4991.05851529848
 20
6453.874028891696
 30
0.0
 11
4991.05851529848
 21
6429.400913507746
 31
0.0
  0
LINE
  5
FE
102
{ACAD_REACTORS
330
F8
102
}
330
21
100
AcDbEntity
  8
1
  6
Continuous
 62
     7
100
AcDbLine
 10
4239.759037912725
 20
7812.431319216367
 30
0.0
 11
4239.759037912725
 21
6453.874028891696
 31
0.0
  0
LINE
  5
FF
102
{ACAD_REACTORS
330
F8
102
}
330
21
100
AcDbEntity
  8
1
  6
Continuous
 62
     7
100
AcDbLine
 10
4925.935912784779
 20
7808.335647172981
 30
0.0
 11
4925.935912784779
 21
6453.874028891696
 31
0.0
  0
LINE
  5
100
102
{ACAD_REACTORS
330
F8
102
}
330
21
100
AcDbEntity
  8
1
  6
Continuous
 62
     7
100
AcDbLine
 10
4978.255111333286
 20
7781.556481321334
 30
0.0
 11
4978.255111333286
 21
6453.874028891696
 31
0.0
  0
LINE
  5
101
102
{ACAD_REACTORS
330
F8
102
}
330
21
100
AcDbEntity
  8
1
  6
Continuous
 62
     7
100
AcDbLine
 10
5054.879249471466
 20
7817.931416966496
 30
0.0
 11
5054.879249471466
 21
6453.874028891696
 31
0.0
  0
ARC
  5
102
102
{ACAD_REACTORS
330
F8
102
}
330
21
100
AcDbEntity
  8
1
  6
Continuous
 62
     7
100
AcDbCircle
 10
4145.76117545423
 20
7232.346238650959
 30
0.0
 40
657.3200279307011
100
AcDbArc
 50
91.62808048363967
 51
102.9988672024778
  0
LINE
  5
103
102
{ACAD_REACTORS
330
F8
102
}
330
21
100
AcDbEntity
  8
1
  6
Continuous
 62
     7
100
AcDbLine
 10
4127.08570042256
 20
7889.400913507746
 30
0.0
 11
4878.917517517665
 21
7889.400913507746
 31
0.0
  0
LINE
  5
104
102
{ACAD_REACTORS
330
F8
102
}
330
21
100
AcDbEntity
  8
1
  6
Continuous
 62
     7
100
AcDbLine
 10
4863.037385832086
 20
7889.400913507746
 30
0.0
 11
4863.037385832086
 21
7812.842885339924
 31
0.0
  0
LINE
  5
105
102
{ACAD_REACTORS
330
F8
102
}
330
21
100
AcDbEntity
  8
1
  6
Continuous
 62
     7
100
AcDbLine
 10
4878.917517517665
 20
7812.842885339924
 30
0.0
 11
3997.90900497943
 21
7812.842885339924
 31
0.0
  0
LINE
  5
106
102
{ACAD_REACTORS
330
F8
102
}
330
21
100
AcDbEntity
  8
1
  6
Continuous
 62
     7
100
AcDbLine
 10
4863.037385832086
 20
7868.401091917829
 30
0.0
 11
4878.917517517665
 21
7868.401091917829
 31
0.0
  0
LINE
  5
107
102
{ACAD_REACTORS
330
F8
102
}
330
21
100
AcDbEntity
  8
1
  6
Continuous
 62
     7
100
AcDbLine
 10
4878.917517517665
 20
7889.400913507746
 30
0.0
 11
4878.917517517665
 21
7812.842885339924
 31
0.0
  0
ARC
  5
108
102
{ACAD_REACTORS
330
F8
102
}
330
21
100
AcDbEntity
  8
1
  6
Continuous
 62
     7
100
AcDbCircle
 10
4879.331285984381
 20
7638.071276707778
 30
0.0
 40
251.3299773969443
100
AcDbArc
 50
31.89998399004404
 51
90.09432697918963
  0
ARC
  5
109
102
{ACAD_REACTORS
330
F8
102
}
330
21
100
AcDbEntity
  8
1
  6
Continuous
 62
     7
100
AcDbCircle
 10
4886.210082195867
 20
7666.223873811458
 30
0.0
 40
147.5598107342779
100
AcDbArc
 50
51.29626869726362
 51
92.83277304276088
  0
LINE
  5
10A
102
{ACAD_REACTORS
330
F8
102
}
330
21
100
AcDbEntity
  8
1
  6
Continuous
 62
     7
100
AcDbLine
 10
4978.478269667091
 20
7781.378028424789
 30
0.0
 11
5054.879249471465
 21
7817.931416966494
 31
0.0
  0
LINE
  5
10B
102
{ACAD_REACTORS
330
F8
102
}
330
21
100
AcDbEntity
  8
1
  6
Continuous
 62
     7
100
AcDbLine
 10
5092.703358158146
 20
7770.88361180743
 30
0.0
 11
5092.703358158146
 21
7688.080061675382
 31
0.0
  0
LINE
  5
10C
102
{ACAD_REACTORS
330
F8
102
}
330
21
100
AcDbEntity
  8
1
  6
Continuous
 62
     7
100
AcDbLine
 10
5087.712880065287
 20
7554.995039813348
 30
0.0
 11
5128.30339388332
 21
7554.995039813348
 31
0.0
  0
LINE
  5
10D
102
{ACAD_REACTORS
330
F8
102
}
330
21
100
AcDbEntity
  8
1
  6
Continuous
 62
     7
100
AcDbLine
 10
5128.30339388332
 20
7554.995039813348
 30
0.0
 11
5147.909004979431
 21
7573.200250116878
 31
0.0
  0
LINE
  5
10E
102
{ACAD_REACTORS
330
F8
102
}
330
21
100
AcDbEntity
  8
1
  6
Continuous
 62
     7
100
AcDbLine
 10
5132.597187985687
 20
7570.611364811727
 30
0.0
 11
5133.4883277396
 21
7559.809621251321
 31
0.0
  0
LINE
  5
10F
102
{ACAD_REACTORS
330
F8
102
}
330
21
100
AcDbEntity
  8
1
  6
Continuous
 62
     7
100
AcDbLine
 10
5143.494081644176
 20
7580.781798892982
 30
0.0
 11
5132.597187985687
 21
7570.611364811727
 31
0.0
  0
LINE
  5
110
102
{ACAD_REACTORS
330
F8
102
}
330
21
100
AcDbEntity
  8
1
  6
Continuous
 62
     7
100
AcDbLine
 10
5092.326563797539
 20
7688.080061675382
 30
0.0
 11
5087.712880065287
 21
7688.080061675382
 31
0.0
  0
LINE
  5
111
102
{ACAD_REACTORS
330
F8
102
}
330
21
100
AcDbEntity
  8
1
  6
Continuous
 62
     7
100
AcDbLine
 10
5087.712880065287
 20
7688.080061675382
 30
0.0
 11
5087.712880065287
 21
7551.192610617289
 31
0.0
  0
LINE
  5
112
102
{ACAD_REACTORS
330
F8
102
}
330
21
100
AcDbEntity
  8
1
  6
Continuous
 62
     7
100
AcDbLine
 10
5092.703358158146
 20
7551.192610617289
 30
0.0
 11
5092.703358158146
 21
6453.874028891696
 31
0.0
  0
LINE
  5
113
102
{ACAD_REACTORS
330
F8
102
}
330
21
100
AcDbEntity
  8
1
  6
Continuous
 62
     7
100
AcDbLine
 10
5092.703358158146
 20
7551.192610617289
 30
0.0
 11
5087.712880065287
 21
7551.192610617289
 31
0.0
  0
LWPOLYLINE
  5
114
102
{ACAD_REACTORS
330
F8
102
}
330
21
100
AcDbEntity
  8
1
  6
Continuous
 62
     7
100
AcDbPolyline
 90
        5
 70
     0
 43
0.0
 10
4777.59583307772
 20
7972.875811626662
 10
4920.513470409491
 20
7972.875811626662
 10
4920.513470409491
 20
7962.78750781501
 10
4777.59583307772
 20
7962.78750781501
 10
4777.59583307772
 20
7972.875811626662
  0
ARC
  5
115
102
{ACAD_REACTORS
330
F8
102
}
330
21
100
AcDbEntity
  8
1
  6
Continuous
 62
     7
100
AcDbCircle
 10
4042.52847133539
 20
6457.313216053866
 30
0.0
 40
26.24334916954099
100
AcDbArc
 50
352.4697362492434
 51
85.20687426131566
  0
LINE
  5
116
102
{ACAD_REACTORS
330
F8
102
}
330
21
100
AcDbEntity
  8
1
  6
Continuous
 62
     7
100
AcDbLine
 10
3997.90900497943
 20
6455.460180019517
 30
0.0
 11
4012.305106628788
 21
6455.460180019517
 31
0.0
  0
LINE
  5
117
102
{ACAD_REACTORS
330
F8
102
}
330
21
100
AcDbEntity
  8
1
  6
Continuous
 62
     7
100
AcDbLine
 10
3997.90900497943
 20
7872.822120167747
 30
0.0
 11
3997.90900497943
 21
7851.266322736648
 31
0.0
  0
LINE
  5
118
102
{ACAD_REACTORS
330
F8
102
}
330
21
100
AcDbEntity
  8
1
  6
Continuous
 62
     7
100
AcDbLine
 10
3997.90900497943
 20
6429.400913507746
 30
0.0
 11
4548.465874933024
 21
6429.400913507746
 31
0.0
  0
LWPOLYLINE
  5
119
102
{ACAD_REACTORS
330
F8
102
}
330
21
100
AcDbEntity
  8
1
  6
Continuous
 62
     7
100
AcDbPolyline
 90
        4
 70
     0
 43
0.0
 10
4229.92330082286
 20
6453.874028891696
 10
4229.92330082286
 20
6443.528139532491
 10
4152.653072449603
 20
6443.528139532491
 10
4152.653072449603
 20
6453.874028891696
  0
LINE
  5
11A
102
{ACAD_REACTORS
330
F8
102
}
330
21
100
AcDbEntity
  8
1
  6
Continuous
 62
     7
100
AcDbLine
 10
4875.57433954181
 20
6429.400913507746
 30
0.0
 11
4991.05851529848
 21
6429.400913507746
 31
0.0
  0
LINE
  5
11B
102
{ACAD_REACTORS
330
F8
102
}
330
21
100
AcDbEntity
  8
1
  6
Continuous
 62
     7
100
AcDbLine
 10
3997.90900497943
 20
6483.464789387078
 30
0.0
 11
4044.72132058513
 21
6483.464789387078
 31
0.0
  0
LINE
  5
11C
102
{ACAD_REACTORS
330
F8
102
}
330
21
100
AcDbEntity
  8
1
  6
Continuous
 62
     7
100
AcDbLine
 10
3997.90900497943
 20
6455.460180019517
 30
0.0
 11
3997.90900497943
 21
6429.400913507746
 31
0.0
  0
LINE
  5
11D
102
{ACAD_REACTORS
330
F8
102
}
330
21
100
AcDbEntity
  8
1
  6
Continuous
 62
     7
100
AcDbLine
 10
4624.334600359218
 20
6429.400913507746
 30
0.0
 11
4849.168581235858
 21
6429.400913507746
 31
0.0
  0
LINE
  5
11E
102
{ACAD_REACTORS
330
F8
102
}
330
21
100
AcDbEntity
  8
1
  6
Continuous
 62
     7
100
AcDbLine
 10
4045.72648265574
 20
7812.842885339924
 30
0.0
 11
4045.72648265574
 21
6483.464789387078
 31
0.0
  0
LWPOLYLINE
  5
11F
102
{ACAD_REACTORS
330
F8
102
}
330
21
100
AcDbEntity
  8
1
  6
Continuous
 62
     7
100
AcDbPolyline
 90
        2
 70
     0
 43
0.0
 10
5087.712880065287
 20
7617.332934703255
 42
-0.073596742507359
 10
5132.597187985687
 20
7570.611364811727
  0
LWPOLYLINE
  5
120
102
{ACAD_REACTORS
330
F8
102
}
330
21
100
AcDbEntity
  8
1
  6
Continuous
 62
     7
100
AcDbPolyline
 90
        2
 70
     0
 43
0.0
 10
5147.909004979431
 20
7573.200250116878
 42
0.1217852501372714
 10
5087.712880065287
 20
7638.342577126884
  0
LINE
  5
121
102
{ACAD_REACTORS
330
F8
102
}
330
21
100
AcDbEntity
  8
1
  6
Continuous
 62
     7
100
AcDbLine
 10
3997.90900497943
 20
7831.88708963166
 30
0.0
 11
4081.703413869525
 21
7831.88708963166
 31
0.0
  0
LINE
  5
122
102
{ACAD_REACTORS
330
F8
102
}
330
21
100
AcDbEntity
  8
1
  6
Continuous
 62
     7
100
AcDbLine
 10
4081.703413869525
 20
7851.266322736648
 30
0.0
 11
4081.703413869525
 21
7831.88708963166
 31
0.0
  0
LINE
  5
123
102
{ACAD_REACTORS
330
F8
102
}
330
21
100
AcDbEntity
  8
1
  6
Continuous
 62
     7
100
AcDbLine
 10
3997.90900497943
 20
7851.266322736648
 30
0.0
 11
4081.703413869525
 21
7851.266322736648
 31
0.0
  0
LINE
  5
124
102
{ACAD_REACTORS
330
F8
102
}
330
21
100
AcDbEntity
  8
1
  6
Continuous
 62
     7
100
AcDbLine
 10
3997.90900497943
 20
7831.88708963166
 30
0.0
 11
3997.90900497943
 21
6483.464789387078
 31
0.0
  0
HATCH
  5
125
102
{ACAD_REACTORS
330
F8
102
}
330
21
100
AcDbEntity
  8
1
  6
Continuous
 62
   250
100
AcDbHatch
 10
0.0
 20
0.0
 30
0.0
210
0.0
220
0.0
230
1.0
  2
SOLID
 70
     1
 71
     0
 91
        1
 92
        3
 72
     1
 73
     1
 93
        5
 10
5128.30339388332
 20
7554.995039813348
 42
0.0
 10
5133.4883277396
 20
7559.809621251321
 42
0.0
 10
5132.597187985687
 20
7570.611364811727
 42
0.0735967425073425
 10
5087.712880065287
 20
7617.332934703255
 42
0.0
 10
5087.712880065287
 20
7554.995039813348
 42
0.0
 97
        0
 75
     0
 76
     1
 98
        1
 10
0.0
 20
0.0
  0
HATCH
  5
126
102
{ACAD_REACTORS
330
F8
102
}
330
21
100
AcDbEntity
  8
1
  6
Continuous
 62
   250
100
AcDbHatch
 10
0.0
 20
0.0
 30
0.0
210
0.0
220
0.0
230
1.0
  2
SOLID
 70
     1
 71
     0
 91
        1
 92
        3
 72
     1
 73
     1
 93
        4
 10
5147.909004979431
 20
7573.200250116878
 42
0.0118560535221675
 10
5143.451032821122
 20
7580.741619991465
 42
0.0
 10
5132.597187985687
 20
7570.611364811727
 42
0.0
 10
5133.4883277396
 20
7559.809621251321
 42
0.0
 97
        0
 75
     0
 76
     1
 98
        1
 10
0.0
 20
0.0
  0
LINE
  5
127
102
{ACAD_REACTORS
330
F8
102
}
330
21
100
AcDbEntity
  8
1
  6
Continuous
 62
     7
100
AcDbLine
 10
4783.480676967851
 20
7979.400913507745
 30
0.0
 11
4916.310010487966
 21
7979.400913507745
 31
0.0
  0
LINE
  5
128
102
{ACAD_REACTORS
330
F8
102
}
330
21
100
AcDbEntity
  8
1
  6
Continuous
 62
     7
100
AcDbLine
 10
4916.310010487966
 20
7979.400913507745
 30
0.0
 11
4916.310010487966
 21
7972.875811626662
 31
0.0
  0
LINE
  5
129
102
{ACAD_REACTORS
330
F8
102
}
330
21
100
AcDbEntity
  8
1
  6
Continuous
 62
     7
100
AcDbLine
 10
4916.310010487966
 20
7972.875811626662
 30
0.0
 11
4783.480676967851
 21
7972.875811626662
 31
0.0
  0
LINE
  5
12A
102
{ACAD_REACTORS
330
F8
102
}
330
21
100
AcDbEntity
  8
1
  6
Continuous
 62
     7
100
AcDbLine
 10
4783.480676967851
 20
7972.875811626662
 30
0.0
 11
4783.480676967851
 21
7979.400913507745
 31
0.0
  0
LINE
  5
12B
102
{ACAD_REACTORS
330
F8
102
}
330
21
100
AcDbEntity
  8
1
  6
Continuous
 62
     7
100
AcDbLine
 10
4786.002752920765
 20
7889.400913507746
 30
0.0
 11
4786.002752920765
 21
7925.797060505608
 31
0.0
  0
LINE
  5
12C
102
{ACAD_REACTORS
330
F8
102
}
330
21
100
AcDbEntity
  8
1
  6
Continuous
 62
     7
100
AcDbLine
 10
4914.628626519359
 20
7925.797060505608
 30
0.0
 11
4914.628626519359
 21
7886.910291513547
 31
0.0
  0
LINE
  5
12D
102
{ACAD_REACTORS
330
F8
102
}
330
21
100
AcDbEntity
  8
1
  6
Continuous
 62
     7
100
AcDbLine
 10
4915.469318503664
 20
7962.78750781501
 30
0.0
 11
4915.469318503664
 21
7925.797060505608
 31
0.0
  0
LINE
  5
12E
102
{ACAD_REACTORS
330
F8
102
}
330
21
100
AcDbEntity
  8
1
  6
Continuous
 62
     7
100
AcDbLine
 10
4915.469318503664
 20
7925.797060505608
 30
0.0
 11
4783.480676967851
 21
7925.797060505608
 31
0.0
  0
LINE
  5
12F
102
{ACAD_REACTORS
330
F8
102
}
330
21
100
AcDbEntity
  8
1
  6
Continuous
 62
     7
100
AcDbLine
 10
4783.480676967851
 20
7925.797060505608
 30
0.0
 11
4783.480676967851
 21
7962.78750781501
 31
0.0
  0
LINE
  5
130
102
{ACAD_REACTORS
330
F8
102
}
330
21
100
AcDbEntity
  8
1
  6
Continuous
 62
     7
100
AcDbLine
 10
4856.562193561525
 20
6453.874028891696
 30
0.0
 11
4856.562193561525
 21
6440.885048758326
 31
0.0
  0
LINE
  5
131
102
{ACAD_REACTORS
330
F8
102
}
330
21
100
AcDbEntity
  8
1
  6
Continuous
 62
     7
100
AcDbLine
 10
4867.652612050026
 20
6453.874028891696
 30
0.0
 11
4867.652612050026
 21
6440.885048758326
 31
0.0
  0
LWPOLYLINE
  5
132
102
{ACAD_REACTORS
330
F8
102
}
330
21
100
AcDbEntity
  8
1
  6
Continuous
 62
     7
100
AcDbPolyline
 90
        4
 70
     0
 43
0.0
 10
4849.168581235858
 20
6429.400913507746
 10
4849.168581235858
 20
6440.885048758326
 10
4875.57433954181
 20
6440.885048758326
 10
4875.57433954181
 20
6429.400913507746
  0
LINE
  5
133
102
{ACAD_REACTORS
330
F8
102
}
330
21
100
AcDbEntity
  8
1
  6
Continuous
 62
     7
100
AcDbLine
 10
4849.168581235858
 20
6429.400913507746
 30
0.0
 11
4875.57433954181
 21
6429.400913507746
 31
0.0
  0
HATCH
  5
134
102
{ACAD_REACTORS
330
F8
102
}
330
21
100
AcDbEntity
  8
1
  6
Continuous
 62
     7
100
AcDbHatch
 10
0.0
 20
0.0
 30
0.0
210
0.0
220
0.0
230
1.0
  2
SOLID
 70
     1
 71
     0
 91
        1
 92
        3
 72
     0
 73
     1
 93
        4
 10
4875.57433954181
 20
6429.400913507746
 10
4875.57433954181
 20
6440.885048758326
 10
4849.168581235858
 20
6440.885048758326
 10
4849.168581235858
 20
6429.400913507746
 97
        0
 75
     0
 76
     1
 98
        1
 10
0.0
 20
0.0
  0
TEXT
  5
136
330
21
100
AcDbEntity
  8
1
  6
Continuous
 62
     7
100
AcDbText
 10
2627.243348032449
 20
12309.70391662894
 30
0.0
 40
400.0
  1
SolvisBen Maßstab 1 :50
  7
ARIAL
100
AcDbText
  0
ENDSEC
  0
SECTION
  2
OBJECTS
  0
DICTIONARY
  5
C
330
0
100
AcDbDictionary
281
     1
  3
ACAD_COLOR
350
1C
  3
ACAD_GROUP
350
D
  3
ACAD_LAYOUT
350
1A
  3
ACAD_MATERIAL
350
1B
  3
ACAD_MLINESTYLE
350
17
  3
ACAD_PLOTSETTINGS
350
19
  3
ACAD_PLOTSTYLENAME
350
E
  3
ACDBHEADERROUNDTRIPXREC
350
13C
  3
AcDbVariableDictionary
350
138
  0
DICTIONARY
  5
1C
102
{ACAD_REACTORS
330
C
102
}
330
C
100
AcDbDictionary
281
     1
  0
DICTIONARY
  5
D
102
{ACAD_REACTORS
330
C
102
}
330
C
100
AcDbDictionary
281
     1
  3
*A1
350
5E
  3
*A2
350
C2
  3
*A3
350
F8
  0
DICTIONARY
  5
1A
102
{ACAD_REACTORS
330
C
102
}
330
C
100
AcDbDictionary
281
     1
  3
Layout1
350
20
  3
Layout2
350
28
  3
Model
350
24
  0
DICTIONARY
  5
1B
102
{ACAD_REACTORS
330
C
102
}
330
C
100
AcDbDictionary
281
     1
  0
DICTIONARY
  5
17
102
{ACAD_REACTORS
330
C
102
}
330
C
100
AcDbDictionary
281
     1
  3
Standard
350
18
  0
DICTIONARY
  5
19
102
{ACAD_REACTORS
330
C
102
}
330
C
100
AcDbDictionary
281
     1
  0
ACDBDICTIONARYWDFLT
  5
E
102
{ACAD_REACTORS
330
C
102
}
330
C
100
AcDbDictionary
281
     1
  3
Normal
350
F
100
AcDbDictionaryWithDefault
340
F
  0
DICTIONARY
  5
13C
102
{ACAD_REACTORS
330
C
102
}
330
C
100
AcDbDictionary
281
     1
  0
DICTIONARY
  5
138
102
{ACAD_REACTORS
330
C
102
}
330
C
100
AcDbDictionary
281
     1
  3
DIMASSOC
350
13A
  3
HIDETEXT
350
139
  3
PROJECTNAME
350
13B
  0
GROUP
  5
5E
102
{ACAD_REACTORS
330
D
102
}
330
D
100
AcDbGroup
300

 70
     0
 71
     1
340
5F
340
60
340
61
340
62
340
63
340
64
340
65
340
66
340
67
340
68
340
69
340
6A
340
6B
340
6C
340
6D
340
6E
340
6F
340
70
340
71
340
72
340
73
340
74
340
75
340
76
340
77
340
78
340
79
340
7A
340
7B
340
7C
340
7D
340
7E
340
7F
340
80
340
81
340
82
340
83
340
84
340
85
340
86
340
87
340
88
340
89
340
8A
340
8B
340
8C
340
8D
340
8E
340
8F
340
90
340
91
340
92
340
93
340
94
340
95
340
96
340
97
340
98
340
99
340
9A
340
9B
340
9C
340
9D
340
9E
340
9F
340
A0
340
A1
340
A2
340
A3
340
A4
340
A5
340
A6
340
A7
340
A8
340
A9
340
AA
340
AB
340
AC
340
AD
340
AE
340
AF
340
B0
340
B1
340
B2
340
B3
340
B4
340
B5
340
B6
340
B7
340
B8
340
B9
340
BA
340
BB
340
BC
340
BD
340
BE
340
BF
340
C0
340
C1
  0
GROUP
  5
C2
102
{ACAD_REACTORS
330
D
102
}
330
D
100
AcDbGroup
300

 70
     0
 71
     1
340
C3
340
C4
340
C5
340
C6
340
C7
340
C8
340
C9
340
CA
340
CB
340
CC
340
CD
340
CE
340
CF
340
D0
340
D1
340
D2
340
D3
340
D4
340
D5
340
D6
340
D7
340
D8
340
D9
340
DA
340
DB
340
DC
340
DD
340
DE
340
DF
340
E0
340
E1
340
E2
340
E3
340
E4
340
E5
340
E6
340
E7
340
E8
340
E9
340
EA
340
EB
340
EC
340
ED
340
EE
340
EF
340
F1
340
F3
340
F4
340
F5
340
F6
340
F7
  0
GROUP
  5
F8
102
{ACAD_REACTORS
330
D
102
}
330
D
100
AcDbGroup
300

 70
     0
 71
     1
340
F9
340
FA
340
FB
340
FC
340
FD
340
FE
340
FF
340
100
340
101
340
102
340
103
340
104
340
105
340
106
340
107
340
108
340
109
340
10A
340
10B
340
10C
340
10D
340
10E
340
10F
340
110
340
111
340
112
340
113
340
114
340
115
340
116
340
117
340
118
340
119
340
11A
340
11B
340
11C
340
11D
340
11E
340
11F
340
120
340
121
340
122
340
123
340
124
340
125
340
126
340
127
340
128
340
129
340
12A
340
12B
340
12C
340
12D
340
12E
340
12F
340
130
340
131
340
132
340
133
340
134
  0
LAYOUT
  5
20
102
{ACAD_XDICTIONARY
360
13D
102
}
102
{ACAD_REACTORS
330
1A
102
}
330
1A
100
AcDbPlotSettings
  1

  2

  4

  6

 40
0.0
 41
0.0
 42
0.0
 43
0.0
 44
0.0
 45
0.0
 46
0.0
 47
0.0
 48
0.0
 49
0.0
140
0.0
141
0.0
142
1.0
143
1.0
 70
   688
 72
     0
 73
     0
 74
     5
  7

 75
    16
147
1.0
148
0.0
149
0.0
100
AcDbLayout
  1
Layout1
 70
     1
 71
     1
 10
0.0
 20
0.0
 11
12.0
 21
9.0
 12
0.0
 22
0.0
 32
0.0
 14
0.0
 24
0.0
 34
0.0
 15
0.0
 25
0.0
 35
0.0
146
0.0
 13
0.0
 23
0.0
 33
0.0
 16
1.0
 26
0.0
 36
0.0
 17
0.0
 27
1.0
 37
0.0
 76
     0
330
1D
  0
LAYOUT
  5
28
102
{ACAD_XDICTIONARY
360
141
102
}
102
{ACAD_REACTORS
330
1A
102
}
330
1A
100
AcDbPlotSettings
  1

  2

  4

  6

 40
0.0
 41
0.0
 42
0.0
 43
0.0
 44
0.0
 45
0.0
 46
0.0
 47
0.0
 48
0.0
 49
0.0
140
0.0
141
0.0
142
1.0
143
1.0
 70
   688
 72
     0
 73
     0
 74
     5
  7

 75
    16
147
1.0
148
0.0
149
0.0
100
AcDbLayout
  1
Layout2
 70
     1
 71
     2
 10
0.0
 20
0.0
 11
12.0
 21
9.0
 12
0.0
 22
0.0
 32
0.0
 14
0.0
 24
0.0
 34
0.0
 15
0.0
 25
0.0
 35
0.0
146
0.0
 13
0.0
 23
0.0
 33
0.0
 16
1.0
 26
0.0
 36
0.0
 17
0.0
 27
1.0
 37
0.0
 76
     0
330
25
  0
LAYOUT
  5
24
102
{ACAD_XDICTIONARY
360
13F
102
}
102
{ACAD_REACTORS
330
1A
102
}
330
1A
100
AcDbPlotSettings
  1

  2

  4

  6

 40
0.0
 41
0.0
 42
0.0
 43
0.0
 44
0.0
 45
0.0
 46
0.0
 47
0.0
 48
0.0
 49
0.0
140
0.0
141
0.0
142
1.0
143
1.0
 70
  1712
 72
     0
 73
     0
 74
     0
  7

 75
     0
147
1.0
148
0.0
149
0.0
100
AcDbLayout
  1
Model
 70
     1
 71
     0
 10
0.0
 20
0.0
 11
12.0
 21
9.0
 12
0.0
 22
0.0
 32
0.0
 14
0.0
 24
0.0
 34
0.0
 15
0.0
 25
0.0
 35
0.0
146
0.0
 13
0.0
 23
0.0
 33
0.0
 16
1.0
 26
0.0
 36
0.0
 17
0.0
 27
1.0
 37
0.0
 76
     0
330
21
  0
MLINESTYLE
  5
18
102
{ACAD_REACTORS
330
17
102
}
330
17
100
AcDbMlineStyle
  2
STANDARD
 70
     0
  3

 62
   256
 51
90.0
 52
90.0
 71
     2
 49
0.5
 62
   256
  6
BYLAYER
 49
-0.5
 62
   256
  6
BYLAYER
  0
ACDBPLACEHOLDER
  5
F
102
{ACAD_REACTORS
330
E
102
}
330
E
  0
DICTIONARYVAR
  5
13A
102
{ACAD_REACTORS
330
138
102
}
330
138
100
DictionaryVariables
280
     0
  1
2
  0
DICTIONARYVAR
  5
139
102
{ACAD_REACTORS
330
138
102
}
330
138
100
DictionaryVariables
280
     0
  1
1
  0
DICTIONARYVAR
  5
13B
102
{ACAD_REACTORS
330
138
102
}
330
138
100
DictionaryVariables
280
     0
  1

  0
DICTIONARY
  5
13D
330
20
100
AcDbDictionary
280
     1
281
     1
  3
ACAD_XREC_ROUNDTRIP
360
13E
  0
DICTIONARY
  5
141
330
28
100
AcDbDictionary
280
     1
281
     1
  3
ACAD_XREC_ROUNDTRIP
360
142
  0
DICTIONARY
  5
13F
330
24
100
AcDbDictionary
280
     1
281
     1
  3
ACAD_XREC_ROUNDTRIP
360
140
  0
XRECORD
  5
13E
102
{ACAD_REACTORS
330
13D
102
}
330
13D
100
AcDbXrecord
280
     1
102
SHADEPLOT
 70
     0
102
SHADEPLOTRESLEVEL
 70
     2
102
SHADEPLOTCUSTOMDPI
 70
   300
  0
XRECORD
  5
142
102
{ACAD_REACTORS
330
141
102
}
330
141
100
AcDbXrecord
280
     1
102
SHADEPLOT
 70
     0
102
SHADEPLOTRESLEVEL
 70
     2
102
SHADEPLOTCUSTOMDPI
 70
   300
  0
XRECORD
  5
140
102
{ACAD_REACTORS
330
13F
102
}
330
13F
100
AcDbXrecord
280
     1
102
SHADEPLOT
 70
     0
102
SHADEPLOTRESLEVEL
 70
     2
102
SHADEPLOTCUSTOMDPI
 70
   300
  0
ENDSEC
  0
EOF
